  0
SECTION
  2
HEADER
  9
$ACADVER
  1
AC1015
  9
$ACADMAINTVER
 70
     6
  9
$DWGCODEPAGE
  3
ANSI_1254
  9
$INSBASE
 10
0.0
 20
0.0
 30
0.0
  9
$EXTMIN
 10
0.0
 20
0.0
 30
0.0
  9
$EXTMAX
 10
279.4
 20
215.9
 30
0.0
  9
$LIMMIN
 10
0.0
 20
0.0
  9
$LIMMAX
 10
279.4
 20
215.9
  9
$ORTHOMODE
 70
     0
  9
$REGENMODE
 70
     1
  9
$FILLMODE
 70
     1
  9
$QTEXTMODE
 70
     0
  9
$MIRRTEXT
 70
     1
  9
$LTSCALE
 40
1.0
  9
$ATTMODE
 70
     1
  9
$TEXTSIZE
 40
3.5
  9
$TRACEWID
 40
1.0
  9
$TEXTSTYLE
  7
Standard
  9
$CLAYER
  8
0
  9
$CELTYPE
  6
ByLayer
  9
$CECOLOR
 62
   256
  9
$CELTSCALE
 40
1.0
  9
$DISPSILH
 70
     0
  9
$DIMSCALE
 40
1.0
  9
$DIMASZ
 40
3.5
  9
$DIMEXO
 40
1.0
  9
$DIMDLI
 40
3.75
  9
$DIMRND
 40
0.0
  9
$DIMDLE
 40
0.0
  9
$DIMEXE
 40
1.0
  9
$DIMTP
 40
0.0
  9
$DIMTM
 40
0.0
  9
$DIMTXT
 40
3.5
  9
$DIMCEN
 40
2.5
  9
$DIMTSZ
 40
0.0
  9
$DIMTOL
 70
     0
  9
$DIMLIM
 70
     0
  9
$DIMTIH
 70
     1
  9
$DIMTOH
 70
     1
  9
$DIMSE1
 70
     0
  9
$DIMSE2
 70
     0
  9
$DIMTAD
 70
     1
  9
$DIMZIN
 70
     0
  9
$DIMBLK
  1

  9
$DIMASO
 70
     1
  9
$DIMSHO
 70
     1
  9
$DIMPOST
  1

  9
$DIMAPOST
  1

  9
$DIMALT
 70
     0
  9
$DIMALTD
 70
     3
  9
$DIMALTF
 40
0.0393700787
  9
$DIMLFAC
 40
1.0
  9
$DIMTOFL
 70
     1
  9
$DIMTVP
 40
0.0
  9
$DIMTIX
 70
     0
  9
$DIMSOXD
 70
     0
  9
$DIMSAH
 70
     0
  9
$DIMBLK1
  1

  9
$DIMBLK2
  1

  9
$DIMSTYLE
  2
ISO-25
  9
$DIMCLRD
 70
     0
  9
$DIMCLRE
 70
     0
  9
$DIMCLRT
 70
     0
  9
$DIMTFAC
 40
1.0
  9
$DIMGAP
 40
1.524
  9
$DIMJUST
 70
     0
  9
$DIMSD1
 70
     0
  9
$DIMSD2
 70
     0
  9
$DIMTOLJ
 70
     0
  9
$DIMTZIN
 70
     0
  9
$DIMALTZ
 70
     0
  9
$DIMALTTZ
 70
     0
  9
$DIMUPT
 70
     0
  9
$DIMDEC
 70
     2
  9
$DIMTDEC
 70
     2
  9
$DIMALTU
 70
     2
  9
$DIMALTTD
 70
     3
  9
$DIMTXSTY
  7
Standard
  9
$DIMAUNIT
 70
     0
  9
$DIMADEC
 70
     2
  9
$DIMALTRND
 40
0.0
  9
$DIMAZIN
 70
     0
  9
$DIMDSEP
 70
    44
  9
$DIMATFIT
 70
     3
  9
$DIMFRAC
 70
     0
  9
$DIMLDRBLK
  1

  9
$DIMLUNIT
 70
     2
  9
$DIMLWD
 70
    -2
  9
$DIMLWE
 70
    -2
  9
$DIMTMOVE
 70
     0
  9
$LUNITS
 70
     2
  9
$LUPREC
 70
     2
  9
$SKETCHINC
 40
1.0
  9
$FILLETRAD
 40
10.0
  9
$AUNITS
 70
     0
  9
$AUPREC
 70
     2
  9
$MENU
  1
.
  9
$ELEVATION
 40
0.0
  9
$PELEVATION
 40
0.0
  9
$THICKNESS
 40
0.0
  9
$LIMCHECK
 70
     0
  9
$CHAMFERA
 40
0.0
  9
$CHAMFERB
 40
0.0
  9
$CHAMFERC
 40
0.0
  9
$CHAMFERD
 40
0.0
  9
$SKPOLY
 70
     0
  9
$TDCREATE
 40
2458985.718047245
  9
$TDUCREATE
 40
2458985.593047245
  9
$TDUPDATE
 40
2458985.718047523
  9
$TDUUPDATE
 40
2458985.593047523
  9
$TDINDWG
 40
0.0000000116
  9
$TDUSRTIMER
 40
0.0000000116
  9
$USRTIMER
 70
     1
  9
$ANGBASE
 50
0.0
  9
$ANGDIR
 70
     0
  9
$PDMODE
 70
     0
  9
$PDSIZE
 40
-1.0
  9
$PLINEWID
 40
0.0
  9
$SPLFRAME
 70
     0
  9
$SPLINETYPE
 70
     6
  9
$SPLINESEGS
 70
     8
  9
$HANDSEED
  5
DD
  9
$SURFTAB1
 70
     6
  9
$SURFTAB2
 70
     6
  9
$SURFTYPE
 70
     6
  9
$SURFU
 70
     6
  9
$SURFV
 70
     6
  9
$UCSBASE
  2

  9
$UCSNAME
  2

  9
$UCSORG
 10
0.0
 20
0.0
 30
0.0
  9
$UCSXDIR
 10
1.0
 20
0.0
 30
0.0
  9
$UCSYDIR
 10
0.0
 20
1.0
 30
0.0
  9
$UCSORTHOREF
  2

  9
$UCSORTHOVIEW
 70
     0
  9
$UCSORGTOP
 10
0.0
 20
0.0
 30
0.0
  9
$UCSORGBOTTOM
 10
0.0
 20
0.0
 30
0.0
  9
$UCSORGLEFT
 10
0.0
 20
0.0
 30
0.0
  9
$UCSORGRIGHT
 10
0.0
 20
0.0
 30
0.0
  9
$UCSORGFRONT
 10
0.0
 20
0.0
 30
0.0
  9
$UCSORGBACK
 10
0.0
 20
0.0
 30
0.0
  9
$PUCSBASE
  2

  9
$PUCSNAME
  2

  9
$PUCSORG
 10
0.0
 20
0.0
 30
0.0
  9
$PUCSXDIR
 10
1.0
 20
0.0
 30
0.0
  9
$PUCSYDIR
 10
0.0
 20
1.0
 30
0.0
  9
$PUCSORTHOREF
  2

  9
$PUCSORTHOVIEW
 70
     0
  9
$PUCSORGTOP
 10
0.0
 20
0.0
 30
0.0
  9
$PUCSORGBOTTOM
 10
0.0
 20
0.0
 30
0.0
  9
$PUCSORGLEFT
 10
0.0
 20
0.0
 30
0.0
  9
$PUCSORGRIGHT
 10
0.0
 20
0.0
 30
0.0
  9
$PUCSORGFRONT
 10
0.0
 20
0.0
 30
0.0
  9
$PUCSORGBACK
 10
0.0
 20
0.0
 30
0.0
  9
$USERI1
 70
     0
  9
$USERI2
 70
     0
  9
$USERI3
 70
     0
  9
$USERI4
 70
     0
  9
$USERI5
 70
     0
  9
$USERR1
 40
0.0
  9
$USERR2
 40
0.0
  9
$USERR3
 40
0.0
  9
$USERR4
 40
0.0
  9
$USERR5
 40
0.0
  9
$WORLDVIEW
 70
     1
  9
$SHADEDGE
 70
     3
  9
$SHADEDIF
 70
    70
  9
$TILEMODE
 70
     1
  9
$MAXACTVP
 70
    64
  9
$PINSBASE
 10
0.0
 20
0.0
 30
0.0
  9
$PLIMCHECK
 70
     0
  9
$PEXTMIN
 10
1.0000000000E+20
 20
1.0000000000E+20
 30
1.0000000000E+20
  9
$PEXTMAX
 10
-1.0000000000E+20
 20
-1.0000000000E+20
 30
-1.0000000000E+20
  9
$PLIMMIN
 10
0.0
 20
0.0
  9
$PLIMMAX
 10
420.0
 20
297.0
  9
$UNITMODE
 70
     0
  9
$VISRETAIN
 70
     1
  9
$PLINEGEN
 70
     0
  9
$PSLTSCALE
 70
     1
  9
$TREEDEPTH
 70
  3020
  9
$CMLSTYLE
  2
Standard
  9
$CMLJUST
 70
     0
  9
$CMLSCALE
 40
20.0
  9
$PROXYGRAPHICS
 70
     1
  9
$MEASUREMENT
 70
     1
  9
$CELWEIGHT
370
    -1
  9
$ENDCAPS
280
     0
  9
$JOINSTYLE
280
     0
  9
$LWDISPLAY
290
     1
  9
$INSUNITS
 70
     4
  9
$HYPERLINKBASE
  1

  9
$STYLESHEET
  1

  9
$XEDIT
290
     1
  9
$CEPSNTYPE
380
     0
  9
$PSTYLEMODE
290
     1
  9
$FINGERPRINTGUID
  2
{4a21f9e4-bd2e-4cf5-866a-c1c1311fce61}
  9
$VERSIONGUID
  2
{FAEB1C32-E019-11D5-929B-00C0DF256EC4}
  9
$EXTNAMES
290
     1
  9
$PSVPSCALE
 40
0.0
  9
$OLESTARTUP
290
     0
  0
ENDSEC
  0
SECTION
  2
CLASSES
  0
CLASS
  1
ACDBDICTIONARYWDFLT
  2
AcDbDictionaryWithDefault
  3
ObjectDBX Classes
 90
        0
280
     0
281
     0
  0
CLASS
  1
VISUALSTYLE
  2
AcDbVisualStyle
  3
ObjectDBX Classes
 90
     4095
280
     0
281
     0
  0
CLASS
  1
MATERIAL
  2
AcDbMaterial
  3
ObjectDBX Classes
 90
     1153
280
     0
281
     0
  0
CLASS
  1
SCALE
  2
AcDbScale
  3
ObjectDBX Classes
 90
     1153
280
     0
281
     0
  0
CLASS
  1
TABLESTYLE
  2
AcDbTableStyle
  3
ObjectDBX Classes
 90
     4095
280
     0
281
     0
  0
CLASS
  1
MLEADERSTYLE
  2
AcDbMLeaderStyle
  3
ACDB_MLEADERSTYLE_CLASS
 90
     4095
280
     0
281
     0
  0
CLASS
  1
SUN
  2
AcDbSun
  3
SCENEOE
 90
     1153
280
     0
281
     0
  0
CLASS
  1
ACDBPLACEHOLDER
  2
AcDbPlaceHolder
  3
ObjectDBX Classes
 90
        0
280
     0
281
     0
  0
CLASS
  1
LAYOUT
  2
AcDbLayout
  3
ObjectDBX Classes
 90
        0
280
     0
281
     0
  0
ENDSEC
  0
SECTION
  2
TABLES
  0
TABLE
  2
VPORT
  5
8
330
0
100
AcDbSymbolTable
 70
     1
  0
VPORT
  5
29
330
8
100
AcDbSymbolTableRecord
100
AcDbViewportTableRecord
  2
*Active
 70
     0
 10
0.0
 20
0.0
 11
1.0
 21
1.0
 12
139.7
 22
107.95
 13
0.0
 23
0.0
 14
10.0
 24
10.0
 15
10.0
 25
10.0
 16
0.0
 26
0.0
 36
1.0
 17
0.0
 27
0.0
 37
0.0
 40
215.9
 41
1.2941176471
 42
50.0
 43
0.0
 44
0.0
 50
0.0
 51
0.0
 71
     0
 72
  2000
 73
     1
 74
     3
 75
     0
 76
     0
 77
     0
 78
     0
281
     0
 65
     1
110
0.0
120
0.0
130
0.0
111
1.0
121
0.0
131
0.0
112
0.0
122
1.0
132
0.0
 79
     0
146
0.0
  0
ENDTAB
  0
TABLE
  2
LTYPE
  5
5
330
0
100
AcDbSymbolTable
 70
     6
  0
LTYPE
  5
14
330
5
100
AcDbSymbolTableRecord
100
AcDbLinetypeTableRecord
  2
ByBlock
 70
     0
  3

 72
    65
 73
     0
 40
0.0
  0
LTYPE
  5
15
330
5
100
AcDbSymbolTableRecord
100
AcDbLinetypeTableRecord
  2
ByLayer
 70
     0
  3

 72
    65
 73
     0
 40
0.0
  0
LTYPE
  5
16
330
5
100
AcDbSymbolTableRecord
100
AcDbLinetypeTableRecord
  2
Continuous
 70
     0
  3
Solid line
 72
    65
 73
     0
 40
0.0
  0
LTYPE
  5
6E
330
5
100
AcDbSymbolTableRecord
100
AcDbLinetypeTableRecord
  2
HIDDEN
 70
     0
  3
Hidden __ __ __ __ __ __ __ __ __ __ __ __ __ __
 72
    65
 73
     2
 40
1.905
 49
1.27
 74
     0
 49
-0.635
 74
     0
  0
LTYPE
  5
6F
330
5
100
AcDbSymbolTableRecord
100
AcDbLinetypeTableRecord
  2
PHANTOM
 70
     0
  3
Phantom ______  __  __  ______  __  __  ______
 72
    65
 73
     6
 40
12.7
 49
6.35
 74
     0
 49
-1.27
 74
     0
 49
1.27
 74
     0
 49
-1.27
 74
     0
 49
1.27
 74
     0
 49
-1.27
 74
     0
  0
LTYPE
  5
70
330
5
100
AcDbSymbolTableRecord
100
AcDbLinetypeTableRecord
  2
CENTER
 70
     0
  3
Center ____ _ ____ _ ____ _ ____ _ ____ _ ____
 72
    65
 73
     4
 40
10.16
 49
6.35
 74
     0
 49
-1.27
 74
     0
 49
1.27
 74
     0
 49
-1.27
 74
     0
  0
LTYPE
  5
71
330
5
100
AcDbSymbolTableRecord
100
AcDbLinetypeTableRecord
  2
CENTERX2
 70
     0
  3
Center (2x) ________  __  ________  __  _____
 72
    65
 73
     4
 40
20.32
 49
12.7
 74
     0
 49
-2.54
 74
     0
 49
2.54
 74
     0
 49
-2.54
 74
     0
  0
LTYPE
  5
72
330
5
100
AcDbSymbolTableRecord
100
AcDbLinetypeTableRecord
  2
DOT2
 70
     0
  3
Dot (.5x) ........................................
 72
    65
 73
     2
 40
0.635
 49
0.0
 74
     0
 49
-0.635
 74
     0
  0
ENDTAB
  0
TABLE
  2
LAYER
  5
2
330
0
100
AcDbSymbolTable
 70
    17
  0
LAYER
  5
10
330
2
100
AcDbSymbolTableRecord
100
AcDbLayerTableRecord
  2
0
 70
     0
 62
     7
  6
Continuous
370
    -3
390
F
  0
LAYER
  5
73
330
2
100
AcDbSymbolTableRecord
100
AcDbLayerTableRecord
  2
FORMAT
 70
     0
 62
     7
  6
Continuous
370
    -3
390
F
  0
LAYER
  5
74
330
2
100
AcDbSymbolTableRecord
100
AcDbLayerTableRecord
  2
YARDIMCI_GEOMETRI
 70
     0
 62
    -6
  6
Continuous
290
     0
370
    -3
390
F
  0
LAYER
  5
75
330
2
100
AcDbSymbolTableRecord
100
AcDbLayerTableRecord
  2
SAYFA_CERCEVESI
 70
     0
 62
     7
  6
Continuous
370
    25
390
F
  0
LAYER
  5
76
330
2
100
AcDbSymbolTableRecord
100
AcDbLayerTableRecord
  2
ANTET
 70
     0
 62
     7
  6
Continuous
370
    -3
390
F
  0
LAYER
  5
77
330
2
100
AcDbSymbolTableRecord
100
AcDbLayerTableRecord
  2
OLCU
 70
     0
 62
   150
  6
Continuous
370
    -3
390
F
  0
LAYER
  5
78
330
2
100
AcDbSymbolTableRecord
100
AcDbLayerTableRecord
  2
METIN
 70
     0
 62
    96
  6
Continuous
370
    -3
390
F
  0
LAYER
  5
79
330
2
100
AcDbSymbolTableRecord
100
AcDbLayerTableRecord
  2
BALON
 70
     0
 62
     5
  6
Continuous
370
    -3
390
F
  0
LAYER
  5
7A
330
2
100
AcDbSymbolTableRecord
100
AcDbLayerTableRecord
  2
VURGU
 70
     0
 62
     7
  6
Continuous
370
    -3
390
F
  0
LAYER
  5
7B
330
2
100
AcDbSymbolTableRecord
100
AcDbLayerTableRecord
  2
SILIK
 70
     0
 62
     7
  6
Continuous
370
    -3
390
F
  0
LAYER
  5
7C
330
2
100
AcDbSymbolTableRecord
100
AcDbLayerTableRecord
  2
MODEL
 70
     0
 62
     7
  6
Continuous
370
    -3
390
F
  0
LAYER
  5
7D
330
2
100
AcDbSymbolTableRecord
100
AcDbLayerTableRecord
  2
DETAYLANDıRMA
 70
     0
 62
   190
  6
Continuous
370
    -3
390
F
  0
LAYER
  5
7E
330
2
100
AcDbSymbolTableRecord
100
AcDbLayerTableRecord
  2
TOLERANS
 70
     0
 62
   230
  6
Continuous
370
    -3
390
F
  0
LAYER
  5
7F
330
2
100
AcDbSymbolTableRecord
100
AcDbLayerTableRecord
  2
MERKEZ_CIZGILERI
 70
     0
 62
    30
  6
Continuous
370
    -3
390
F
  0
LAYER
  5
80
330
2
100
AcDbSymbolTableRecord
100
AcDbLayerTableRecord
  2
KESIT-DETAY_CIZGILERI
 70
     0
 62
     7
  6
Continuous
370
    -3
390
F
  0
LAYER
  5
81
330
2
100
AcDbSymbolTableRecord
100
AcDbLayerTableRecord
  2
\U+041E\U+0421\U+0415\U+0412\U+042B\U+0415
 70
     0
 62
     7
  6
Continuous
370
    -3
390
F
  0
LAYER
  5
82
330
2
100
AcDbSymbolTableRecord
100
AcDbLayerTableRecord
  2
\U+0412\U+041E\U+0414\U+042F\U+041D\U+042B\U+0415_\U+0417\U+041D\U+0410\U+041A\U+0418
 70
     0
 62
    11
  6
Continuous
370
    -3
390
F
  0
ENDTAB
  0
TABLE
  2
STYLE
  5
3
330
0
100
AcDbSymbolTable
 70
     1
  0
STYLE
  5
11
330
3
100
AcDbSymbolTableRecord
100
AcDbTextStyleTableRecord
  2
Standard
 70
     0
 40
0.0
 41
1.0
 50
0.0
 71
     0
 42
3.5
  3
txt
  4

  0
ENDTAB
  0
TABLE
  2
VIEW
  5
6
330
0
100
AcDbSymbolTable
 70
     0
  0
ENDTAB
  0
TABLE
  2
UCS
  5
7
330
0
100
AcDbSymbolTable
 70
     0
  0
ENDTAB
  0
TABLE
  2
APPID
  5
9
330
0
100
AcDbSymbolTable
 70
     1
  0
APPID
  5
12
330
9
100
AcDbSymbolTableRecord
100
AcDbRegAppTableRecord
  2
ACAD
 70
     0
  0
ENDTAB
  0
TABLE
  2
DIMSTYLE
  5
A
330
0
100
AcDbSymbolTable
 70
     1
100
AcDbDimStyleTable
  0
DIMSTYLE
105
27
330
A
100
AcDbSymbolTableRecord
100
AcDbDimStyleTableRecord
  2
ISO-25
 70
     0
 41
2.5
 42
0.625
 43
3.75
 44
1.25
 73
     0
 74
     0
 77
     1
 78
     8
140
2.5
141
2.5
143
0.0393700787
147
0.625
171
     3
172
     1
178
     0
271
     2
272
     2
274
     3
278
    44
283
     0
284
     8
340
11
  0
ENDTAB
  0
TABLE
  2
BLOCK_RECORD
  5
1
330
0
100
AcDbSymbolTable
 70
     3
  0
BLOCK_RECORD
  5
1F
330
1
100
AcDbSymbolTableRecord
100
AcDbBlockTableRecord
  2
*Model_Space
340
22
  0
BLOCK_RECORD
  5
1B
330
1
100
AcDbSymbolTableRecord
100
AcDbBlockTableRecord
  2
*Paper_Space
340
1E
  0
BLOCK_RECORD
  5
23
330
1
100
AcDbSymbolTableRecord
100
AcDbBlockTableRecord
  2
*Paper_Space0
340
26
  0
BLOCK_RECORD
  5
AF
330
1
100
AcDbSymbolTableRecord
100
AcDbBlockTableRecord
  2
SW_CENTERMARKSYMBOL_0
340
0
102
{BLKREFS
331
BA
102
}
  0
BLOCK_RECORD
  5
C3
330
1
100
AcDbSymbolTableRecord
100
AcDbBlockTableRecord
  2
SW_CENTERMARKSYMBOL_1
340
0
102
{BLKREFS
331
CE
102
}
  0
ENDTAB
  0
ENDSEC
  0
SECTION
  2
BLOCKS
  0
BLOCK
  5
20
330
1F
100
AcDbEntity
  8
0
100
AcDbBlockBegin
  2
*Model_Space
 70
     0
 10
0.0
 20
0.0
 30
0.0
  3
*Model_Space
  1

  0
ENDBLK
  5
21
330
1F
100
AcDbEntity
  8
0
100
AcDbBlockEnd
  0
BLOCK
  5
1C
330
1B
100
AcDbEntity
 67
     1
  8
0
100
AcDbBlockBegin
  2
*Paper_Space
 70
     0
 10
0.0
 20
0.0
 30
0.0
  3
*Paper_Space
  1

  0
ENDBLK
  5
1D
330
1B
100
AcDbEntity
 67
     1
  8
0
100
AcDbBlockEnd
  0
BLOCK
  5
24
330
23
100
AcDbEntity
  8
0
100
AcDbBlockBegin
  2
*Paper_Space0
 70
     0
 10
0.0
 20
0.0
 30
0.0
  3
*Paper_Space0
  1

  0
ENDBLK
  5
25
330
23
100
AcDbEntity
  8
0
100
AcDbBlockEnd
  0
BLOCK
  5
B0
330
AF
100
AcDbEntity
  8
0
100
AcDbBlockBegin
  2
SW_CENTERMARKSYMBOL_0
 70
     0
 10
0.0
 20
0.0
 30
0.0
  3
SW_CENTERMARKSYMBOL_0
  1

  0
LINE
  5
B2
330
AF
100
AcDbEntity
  8
FORMAT
 62
     0
100
AcDbLine
 10
0.0
 20
0.0
 30
0.0
 11
0.0
 21
2.5
 31
0.0
  0
LINE
  5
B3
330
AF
100
AcDbEntity
  8
FORMAT
 62
     0
100
AcDbLine
 10
0.0
 20
0.0
 30
0.0
 11
-2.5
 21
0.0
 31
0.0
  0
LINE
  5
B4
330
AF
100
AcDbEntity
  8
FORMAT
 62
     0
100
AcDbLine
 10
0.0
 20
0.0
 30
0.0
 11
0.0
 21
-2.5
 31
0.0
  0
LINE
  5
B5
330
AF
100
AcDbEntity
  8
FORMAT
 62
     0
100
AcDbLine
 10
0.0
 20
0.0
 30
0.0
 11
2.5
 21
0.0
 31
0.0
  0
LINE
  5
B6
330
AF
100
AcDbEntity
  8
FORMAT
 62
     0
100
AcDbLine
 10
0.0
 20
5.0
 30
0.0
 11
0.0
 21
22.5
 31
0.0
  0
LINE
  5
B7
330
AF
100
AcDbEntity
  8
FORMAT
 62
     0
100
AcDbLine
 10
-5.0
 20
0.0
 30
0.0
 11
-22.5
 21
0.0
 31
0.0
  0
LINE
  5
B8
330
AF
100
AcDbEntity
  8
FORMAT
 62
     0
100
AcDbLine
 10
0.0
 20
-5.0
 30
0.0
 11
0.0
 21
-22.5
 31
0.0
  0
LINE
  5
B9
330
AF
100
AcDbEntity
  8
FORMAT
 62
     0
100
AcDbLine
 10
5.0
 20
0.0
 30
0.0
 11
22.5
 21
0.0
 31
0.0
  0
ENDBLK
  5
B1
330
AF
100
AcDbEntity
  8
0
100
AcDbBlockEnd
  0
BLOCK
  5
C4
330
C3
100
AcDbEntity
  8
0
100
AcDbBlockBegin
  2
SW_CENTERMARKSYMBOL_1
 70
     0
 10
0.0
 20
0.0
 30
0.0
  3
SW_CENTERMARKSYMBOL_1
  1

  0
LINE
  5
C6
330
C3
100
AcDbEntity
  8
FORMAT
 62
     0
100
AcDbLine
 10
0.0
 20
0.0
 30
0.0
 11
0.0
 21
2.5
 31
0.0
  0
LINE
  5
C7
330
C3
100
AcDbEntity
  8
FORMAT
 62
     0
100
AcDbLine
 10
0.0
 20
0.0
 30
0.0
 11
-2.5
 21
0.0
 31
0.0
  0
LINE
  5
C8
330
C3
100
AcDbEntity
  8
FORMAT
 62
     0
100
AcDbLine
 10
0.0
 20
0.0
 30
0.0
 11
0.0
 21
-2.5
 31
0.0
  0
LINE
  5
C9
330
C3
100
AcDbEntity
  8
FORMAT
 62
     0
100
AcDbLine
 10
0.0
 20
0.0
 30
0.0
 11
2.5
 21
0.0
 31
0.0
  0
LINE
  5
CA
330
C3
100
AcDbEntity
  8
FORMAT
 62
     0
100
AcDbLine
 10
0.0
 20
5.0
 30
0.0
 11
0.0
 21
22.5
 31
0.0
  0
LINE
  5
CB
330
C3
100
AcDbEntity
  8
FORMAT
 62
     0
100
AcDbLine
 10
-5.0
 20
0.0
 30
0.0
 11
-22.5
 21
0.0
 31
0.0
  0
LINE
  5
CC
330
C3
100
AcDbEntity
  8
FORMAT
 62
     0
100
AcDbLine
 10
0.0
 20
-5.0
 30
0.0
 11
0.0
 21
-22.5
 31
0.0
  0
LINE
  5
CD
330
C3
100
AcDbEntity
  8
FORMAT
 62
     0
100
AcDbLine
 10
5.0
 20
0.0
 30
0.0
 11
22.5
 21
0.0
 31
0.0
  0
ENDBLK
  5
C5
330
C3
100
AcDbEntity
  8
0
100
AcDbBlockEnd
  0
ENDSEC
  0
SECTION
  2
ENTITIES
  0
LINE
  5
83
330
1F
100
AcDbEntity
  8
0
  6
Continuous
 62
     7
370
    25
100
AcDbLine
 10
106.5643072432
 20
91.7308957348
 30
0.0
 11
106.5643072432
 21
15.0151656042
 31
0.0
  0
LINE
  5
84
330
1F
100
AcDbEntity
  8
0
  6
Continuous
 62
     7
370
    25
100
AcDbLine
 10
146.5643063491
 20
15.0151656042
 30
0.0
 11
146.5643063491
 21
91.7308957348
 31
0.0
  0
ARC
  5
85
330
1F
100
AcDbEntity
  8
0
  6
Continuous
 62
     7
370
    25
100
AcDbCircle
 10
146.5643067962
 20
91.7308943567
 30
0.0
 40
40.0
100
AcDbArc
 50
135.0
 51
180.0
  0
LINE
  5
86
330
1F
100
AcDbEntity
  8
0
  6
Continuous
 62
     7
370
    25
100
AcDbLine
 10
172.4221721595
 20
174.157302178
 30
0.0
 11
118.2800351015
 21
120.0151623259
 31
0.0
  0
LINE
  5
87
330
1F
100
AcDbEntity
  8
0
  6
Continuous
 62
     7
370
    25
100
AcDbLine
 10
146.5643063491
 20
91.7308957348
 30
0.0
 11
200.7064424759
 21
145.8730355869
 31
0.0
  0
LINE
  5
88
330
1F
100
AcDbEntity
  8
0
  6
Continuous
 62
     7
370
    25
100
AcDbLine
 10
126.5643067962
 20
15.0151656042
 30
0.0
 11
146.5643063491
 21
15.0151656042
 31
0.0
  0
LINE
  5
89
330
1F
100
AcDbEntity
  8
0
  6
Continuous
 62
     7
370
    25
100
AcDbLine
 10
106.5643072432
 20
15.0151656042
 30
0.0
 11
126.5643067962
 21
15.0151656042
 31
0.0
  0
LWPOLYLINE
  5
8A
330
1F
100
AcDbEntity
  8
0
  6
Continuous
 62
     7
370
    25
100
AcDbPolyline
 90
       21
 70
   128
 43
0.0
 10
186.5643054551
 20
160.0151614318
 10
187.7022773331
 20
158.8771895538
 10
188.8328656858
 20
157.7466086517
 10
189.9487428671
 20
156.6307351957
 10
191.0426669127
 20
155.5368111501
 10
192.1075485951
 20
154.4719145666
 10
193.1364812261
 20
153.4429893861
 10
194.1227965361
 20
152.4566815267
 10
195.0600870257
 20
151.5193835865
 10
195.9422804719
 20
150.6371901403
 10
196.7636473781
 20
149.8158232341
 10
197.5188754803
 20
149.0606025825
 10
198.2030548459
 20
148.3764157663
 10
198.8117523795
 20
147.7677182327
 10
199.341026724
 20
147.2384438882
 10
199.787435711
 20
146.7920349012
 10
200.1480810648
 20
146.4313820968
 10
200.4206382042
 20
146.1588398586
 10
200.603333891
 20
145.9761367212
 10
200.6949760324
 20
145.8844945798
 10
200.7064424759
 20
145.8730355869
  0
LWPOLYLINE
  5
8B
330
1F
100
AcDbEntity
  8
0
  6
Continuous
 62
     7
370
    25
100
AcDbPolyline
 90
       21
 70
   128
 43
0.0
 10
172.4221721595
 20
174.157302178
 10
172.4336423284
 20
174.1458282838
 10
172.5252844697
 20
174.0541861425
 10
172.7079727059
 20
173.8714979063
 10
172.9805298453
 20
173.5989407669
 10
173.3411789244
 20
173.2382879625
 10
173.7875879115
 20
172.7918789754
 10
174.3168585306
 20
172.2626195322
 10
174.9255560642
 20
171.6539219986
 10
175.6097391552
 20
170.9697351823
 10
176.3649635321
 20
170.2145145307
 10
177.1863378888
 20
169.3931327234
 10
178.0685276097
 20
168.5109392772
 10
179.0058180994
 20
167.5736562381
 10
179.9921296841
 20
166.5873483787
 10
181.0210623151
 20
165.5584082971
 10
182.0859439975
 20
164.4935266147
 10
183.1798717683
 20
163.3996025692
 10
184.2957489496
 20
162.2837291132
 10
185.4263373023
 20
161.1531333099
 10
186.5643054551
 20
160.0151614318
  0
LINE
  5
8C
330
1F
100
AcDbEntity
  8
0
  6
Continuous
 62
     1
370
    25
100
AcDbLine
 10
106.5643072432
 20
91.7308957348
 30
0.0
 11
146.5643063491
 21
91.7308957348
 31
0.0
  0
LWPOLYLINE
  5
8D
330
1F
100
AcDbEntity
  8
0
  6
Continuous
 62
     1
370
    25
100
AcDbPolyline
 90
       40
 70
   128
 43
0.0
 10
118.2800351015
 20
120.0151623259
 10
118.3258943564
 20
119.9693040023
 10
118.4631722352
 20
119.8320270548
 10
118.6909802562
 20
119.6042181025
 10
119.0078399448
 20
119.2873598109
 10
119.4116972691
 20
118.8835010896
 10
119.8999319529
 20
118.3952719937
 10
120.469378431
 20
117.8258241187
 10
121.1163430779
 20
117.1788604031
 10
121.836630751
 20
116.4585680733
 10
122.6255694708
 20
115.6696335445
 10
123.4780427838
 20
114.8171604643
 10
124.388522592
 20
113.9066771637
 10
125.351103379
 20
112.9440994034
 10
126.3595428243
 20
111.9356558691
 10
127.4073007588
 20
110.8879030715
 10
128.4875820928
 20
109.807621039
 10
129.5933806176
 20
108.7018207679
 10
130.7175249165
 20
107.5776771675
 10
131.8527247129
 20
106.4424769054
 10
132.991617669
 20
105.3035811554
 10
134.1268174654
 20
104.1683808933
 10
135.2509619972
 20
103.0442372928
 10
136.3567604056
 20
101.9384444724
 10
137.4370415068
 20
100.8581624399
 10
138.4847998923
 20
99.8104021917
 10
139.4932387701
 20
98.8019586573
 10
140.4558202556
 20
97.8393808971
 10
141.366299831
 20
96.928905047
 10
142.2187738424
 20
96.0764245163
 10
143.0077120966
 20
95.2874899874
 10
143.7279988384
 20
94.5672051082
 10
144.3749644166
 20
93.9202339421
 10
144.944410429
 20
93.3507935176
 10
145.4326451129
 20
92.8625569711
 10
145.8365019715
 20
92.4586982499
 10
146.1533621257
 20
92.1418399582
 10
146.3811692154
 20
91.9140310059
 10
146.5184480256
 20
91.7767540584
 10
146.5643063491
 20
91.7308957348
  0
LINE
  5
8E
330
1F
100
AcDbEntity
  8
0
  6
Continuous
 62
     7
370
    25
100
AcDbLine
 10
-9.1513780464
 20
160.0151614318
 30
0.0
 11
-9.1513780464
 21
105.8730290304
 31
0.0
  0
LINE
  5
8F
330
1F
100
AcDbEntity
  8
0
  6
Continuous
 62
     7
370
    25
100
AcDbLine
 10
30.8486210595
 20
105.8730290304
 30
0.0
 11
30.8486210595
 21
160.0151614318
 31
0.0
  0
LINE
  5
90
330
1F
100
AcDbEntity
  8
0
  6
Continuous
 62
     7
370
    25
100
AcDbLine
 10
-9.1513780464
 20
105.8730290304
 30
0.0
 11
-9.1513780464
 21
91.7308957348
 31
0.0
  0
LINE
  5
91
330
1F
100
AcDbEntity
  8
0
  6
Continuous
 62
     7
370
    25
100
AcDbLine
 10
30.8486210595
 20
91.7308957348
 30
0.0
 11
30.8486210595
 21
105.8730290304
 31
0.0
  0
LINE
  5
92
330
1F
100
AcDbEntity
  8
0
  6
Continuous
 62
     7
370
    25
100
AcDbLine
 10
-9.1513780464
 20
91.7308957348
 30
0.0
 11
-9.1513780464
 21
15.0151656042
 31
0.0
  0
LINE
  5
93
330
1F
100
AcDbEntity
  8
0
  6
Continuous
 62
     7
370
    25
100
AcDbLine
 10
30.8486210595
 20
15.0151656042
 30
0.0
 11
30.8486210595
 21
91.7308957348
 31
0.0
  0
LWPOLYLINE
  5
94
330
1F
100
AcDbEntity
  8
0
  6
Continuous
 62
     7
370
    25
100
AcDbPolyline
 90
       79
 70
   128
 43
0.0
 10
-9.1513780464
 20
160.0151614318
 10
-9.0865244676
 20
158.8771895538
 10
-8.8923828264
 20
157.7466086517
 10
-8.5702141334
 20
156.6307351957
 10
-8.122106414
 20
155.5368111501
 10
-7.5509672572
 20
154.4719145666
 10
-6.8604996015
 20
153.4429893861
 10
-6.0551793833
 20
152.4566815267
 10
-5.1402331848
 20
151.5193835865
 10
-4.1215935309
 20
150.6371901403
 10
-3.0058653612
 20
149.8158232341
 10
-1.8002859835
 20
149.0606025825
 10
-0.5126738508
 20
148.3764157663
 10
0.8486217301
 20
147.7677182327
 10
2.2747699584
 20
147.2384438882
 10
3.7565237324
 20
146.7920349012
 10
5.2842722687
 20
146.4313820968
 10
6.8481076922
 20
146.1588398586
 10
8.4378878999
 20
145.9761367212
 10
10.0433026853
 20
145.8844945798
 10
11.6539403278
 20
145.8844945798
 10
13.2593551132
 20
145.9761367212
 10
14.8491353209
 20
146.1588398586
 10
16.4129707444
 20
146.4313820968
 10
17.9407192807
 20
146.7920349012
 10
19.4224730547
 20
147.2384438882
 10
20.848621283
 20
147.7677182327
 10
22.2099168639
 20
148.3764157663
 10
23.4975289966
 20
149.0606025825
 10
24.7031083743
 20
149.8158232341
 10
25.818836544
 20
150.6371901403
 10
26.8374761979
 20
151.5193835865
 10
27.7524223964
 20
152.4566815267
 10
28.5577426146
 20
153.4429893861
 10
29.2482102703
 20
154.4719145666
 10
29.8193494271
 20
155.5368111501
 10
30.2674571465
 20
156.6307351957
 10
30.5896258394
 20
157.7466086517
 10
30.7837674807
 20
158.8771895538
 10
30.8486210595
 20
160.0151614318
 10
30.7837674807
 20
161.1531333099
 10
30.5896258394
 20
162.2837291132
 10
30.2674571465
 20
163.3996025692
 10
29.8193494271
 20
164.4935266147
 10
29.2482102703
 20
165.5584082971
 10
28.5577426146
 20
166.5873483787
 10
27.7524223964
 20
167.5736562381
 10
26.8374761979
 20
168.5109392772
 10
25.818836544
 20
169.3931327234
 10
24.7031083743
 20
170.2145145307
 10
23.4975289966
 20
170.9697351823
 10
22.2099168639
 20
171.6539219986
 10
20.848621283
 20
172.2626195322
 10
19.4224730547
 20
172.7918789754
 10
17.9407192807
 20
173.2382879625
 10
16.4129707444
 20
173.5989407669
 10
14.8491353209
 20
173.8714979063
 10
13.2593551132
 20
174.0541861425
 10
11.6539403278
 20
174.1458282838
 10
10.0433026853
 20
174.1458282838
 10
8.4378878999
 20
174.0541861425
 10
6.8481076922
 20
173.8714979063
 10
5.2842722687
 20
173.5989407669
 10
3.7565237324
 20
173.2382879625
 10
2.2747699584
 20
172.7918789754
 10
0.8486217301
 20
172.2626195322
 10
-0.5126738508
 20
171.6539219986
 10
-1.8002859835
 20
170.9697351823
 10
-3.0058653612
 20
170.2145145307
 10
-4.1215935309
 20
169.3931327234
 10
-5.1402331848
 20
168.5109392772
 10
-6.0551793833
 20
167.5736562381
 10
-6.8604996015
 20
166.5873483787
 10
-7.5509672572
 20
165.5584082971
 10
-8.122106414
 20
164.4935266147
 10
-8.5702141334
 20
163.3996025692
 10
-8.8923828264
 20
162.2837291132
 10
-9.0865244676
 20
161.1531333099
 10
-9.1513780464
 20
160.0151614318
  0
LWPOLYLINE
  5
95
330
1F
100
AcDbEntity
  8
0
  6
Continuous
 62
     7
370
    25
100
AcDbPolyline
 90
       71
 70
   128
 43
0.0
 10
-5.4513787438
 20
160.0151614318
 10
-5.3857596178
 20
161.0483334432
 10
-5.1894312312
 20
162.0731906067
 10
-4.8639731069
 20
163.0814627777
 10
-4.412006918
 20
164.0650586258
 10
-3.8371713419
 20
165.016035832
 10
-3.1440941204
 20
165.9267650018
 10
-2.3383557384
 20
166.7898849617
 10
-1.4264437889
 20
167.5984666715
 10
-0.4156998877
 20
168.3459834228
 10
0.6857380684
 20
169.0264300476
 10
1.8690010945
 20
169.6343229185
 10
3.1245622265
 20
170.1647744546
 10
4.4423133548
 20
170.6134931217
 10
5.8116443868
 20
170.9768877397
 10
7.221530326
 20
171.25202278
 10
8.6606192815
 20
171.4366928707
 10
10.1173247856
 20
171.5293929945
 10
11.5799182275
 20
171.5293929945
 10
13.0366237316
 20
171.4366928707
 10
14.4757126871
 20
171.25202278
 10
15.8855986263
 20
170.9768877397
 10
17.2549296583
 20
170.6134931217
 10
18.5726807865
 20
170.1647744546
 10
19.8282419185
 20
169.6343229185
 10
21.0115049447
 20
169.0264300476
 10
22.1129429008
 20
168.3459834228
 10
23.1236868019
 20
167.5984666715
 10
24.0355987515
 20
166.7898849617
 10
24.8413371335
 20
165.9267650018
 10
25.534414355
 20
165.016035832
 10
26.1092499311
 20
164.0650586258
 10
26.56121612
 20
163.0814627777
 10
26.8866742443
 20
162.0731906067
 10
27.0830026309
 20
161.0483334432
 10
27.1486217569
 20
160.0151614318
 10
27.0830026309
 20
158.9820043216
 10
26.8866742443
 20
157.9571471582
 10
26.56121612
 20
156.948860086
 10
26.1092499311
 20
155.9652791391
 10
25.534414355
 20
155.0142870317
 10
24.8413371335
 20
154.103572763
 10
24.0355987515
 20
153.2404528032
 10
23.1236868019
 20
152.4318710933
 10
22.1129429008
 20
151.684354342
 10
21.0115049447
 20
151.0039077173
 10
19.8282419185
 20
150.3959999452
 10
18.5726807865
 20
149.8655633102
 10
17.2549296583
 20
149.416829742
 10
15.8855986263
 20
149.053435124
 10
14.4757126871
 20
148.7783000837
 10
13.0366237316
 20
148.593629993
 10
11.5799182275
 20
148.5009298692
 10
10.1173247856
 20
148.5009298692
 10
8.6606192815
 20
148.593629993
 10
7.221530326
 20
148.7783000837
 10
5.8116443868
 20
149.053435124
 10
4.4423133548
 20
149.416829742
 10
3.1245622265
 20
149.8655633102
 10
1.8690010945
 20
150.3959999452
 10
0.6857380684
 20
151.0039077173
 10
-0.4156998877
 20
151.684354342
 10
-1.4264437889
 20
152.4318710933
 10
-2.3383557384
 20
153.2404528032
 10
-3.1440941204
 20
154.103572763
 10
-3.8371713419
 20
155.0142870317
 10
-4.412006918
 20
155.9652791391
 10
-4.8639731069
 20
156.948860086
 10
-5.1894312312
 20
157.9571471582
 10
-5.3857596178
 20
158.9820043216
 10
-5.4513787438
 20
160.0151614318
  0
LINE
  5
96
330
1F
100
AcDbEntity
  8
0
  6
Continuous
 62
     7
370
    25
100
AcDbLine
 10
-9.1513780464
 20
15.0151656042
 30
0.0
 11
30.8486210595
 21
15.0151656042
 31
0.0
  0
LWPOLYLINE
  5
97
330
1F
100
AcDbEntity
  8
0
  6
Continuous
 62
     1
370
    25
100
AcDbPolyline
 90
       21
 70
   128
 43
0.0
 10
10.8486215065
 20
91.7308957348
 10
12.4579528527
 20
91.7767540584
 10
14.0568470995
 20
91.9140310059
 10
15.634935018
 20
92.1418399582
 10
17.1819814894
 20
92.4586982499
 10
18.6879538412
 20
92.8625569711
 10
20.1430848281
 20
93.3507935176
 10
21.537937824
 20
93.9202339421
 10
22.8634668927
 20
94.5672051082
 10
24.1110749955
 20
95.2874899874
 10
25.272670802
 20
96.0764245163
 10
26.3407208438
 20
96.928905047
 10
27.3082988749
 20
97.8393808971
 10
28.1691296439
 20
98.8019586573
 10
28.9176298718
 20
99.8104021917
 10
29.5489455055
 20
100.8581624399
 10
30.0589843135
 20
101.9384444724
 10
30.4444345127
 20
103.0442372928
 10
30.7027982961
 20
104.1683808933
 10
30.8324011455
 20
105.3035811554
 10
30.8486210595
 20
105.8730290304
  0
LWPOLYLINE
  5
98
330
1F
100
AcDbEntity
  8
0
  6
Continuous
 62
     1
370
    25
100
AcDbPolyline
 90
       21
 70
   128
 43
0.0
 10
-9.1513780464
 20
105.8730290304
 10
-9.1351581325
 20
105.3035811554
 10
-9.005555283
 20
104.1683808933
 10
-8.7471914996
 20
103.0442372928
 10
-8.3617413004
 20
101.9384444724
 10
-7.8517024924
 20
100.8581624399
 10
-7.2203868587
 20
99.8104021917
 10
-6.4718866308
 20
98.8019586573
 10
-5.6110558619
 20
97.8393808971
 10
-4.6434778307
 20
96.928905047
 10
-3.5754277889
 20
96.0764245163
 10
-2.4138319825
 20
95.2874899874
 10
-1.1662238796
 20
94.5672051082
 10
0.1593051891
 20
93.9202339421
 10
1.554158185
 20
93.3507935176
 10
3.0092891718
 20
92.8625569711
 10
4.5152615237
 20
92.4586982499
 10
6.0623079951
 20
92.1418399582
 10
7.6403959136
 20
91.9140310059
 10
9.2392901604
 20
91.7767540584
 10
10.8486215065
 20
91.7308957348
  0
LINE
  5
99
330
1F
100
AcDbEntity
  8
0
  6
Continuous
 62
     1
370
    25
100
AcDbLine
 10
10.8486215065
 20
91.7308957348
 30
0.0
 11
30.8486210595
 21
91.7308957348
 31
0.0
  0
LINE
  5
9A
330
1F
100
AcDbEntity
  8
0
  6
Continuous
 62
     1
370
    25
100
AcDbLine
 10
-9.1513780464
 20
91.7308957348
 30
0.0
 11
10.8486215065
 21
91.7308957348
 31
0.0
  0
LINE
  5
9B
330
1F
100
AcDbEntity
  8
0
  6
Continuous
 62
     7
370
    25
100
AcDbLine
 10
256.3668129667
 20
91.7308957348
 30
0.0
 11
256.3668129667
 21
15.0151656042
 31
0.0
  0
LINE
  5
9C
330
1F
100
AcDbEntity
  8
0
  6
Continuous
 62
     7
370
    25
100
AcDbLine
 10
296.3668120726
 20
15.0151656042
 30
0.0
 11
296.3668120726
 21
91.7308957348
 31
0.0
  0
LINE
  5
9D
330
1F
100
AcDbEntity
  8
0
  6
Continuous
 62
     7
370
    25
100
AcDbLine
 10
296.3668120726
 20
91.7308957348
 30
0.0
 11
296.3668120726
 21
105.8730290304
 31
0.0
  0
LINE
  5
9E
330
1F
100
AcDbEntity
  8
0
  6
Continuous
 62
     7
370
    25
100
AcDbLine
 10
256.3668129667
 20
105.8730290304
 30
0.0
 11
256.3668129667
 21
91.7308957348
 31
0.0
  0
LINE
  5
9F
330
1F
100
AcDbEntity
  8
0
  6
Continuous
 62
     7
370
    25
100
AcDbLine
 10
256.3668129667
 20
160.0151614318
 30
0.0
 11
256.3668129667
 21
105.8730290304
 31
0.0
  0
LINE
  5
A0
330
1F
100
AcDbEntity
  8
0
  6
Continuous
 62
     7
370
    25
100
AcDbLine
 10
296.3668120726
 20
105.8730290304
 30
0.0
 11
296.3668120726
 21
160.0151614318
 31
0.0
  0
LINE
  5
A1
330
1F
100
AcDbEntity
  8
0
  6
Continuous
 62
     7
370
    25
100
AcDbLine
 10
256.3668129667
 20
15.0151656042
 30
0.0
 11
296.3668120726
 21
15.0151656042
 31
0.0
  0
LWPOLYLINE
  5
A2
330
1F
100
AcDbEntity
  8
0
  6
Continuous
 62
     7
370
    25
100
AcDbPolyline
 90
       40
 70
   128
 43
0.0
 10
256.3668129667
 20
160.0151614318
 10
256.4316665455
 20
161.1531333099
 10
256.6258081868
 20
162.2837291132
 10
256.9479768797
 20
163.3996025692
 10
257.3960845991
 20
164.4935266147
 10
257.9672237559
 20
165.5584082971
 10
258.6576914116
 20
166.5873483787
 10
259.4630116298
 20
167.5736562381
 10
260.3779578283
 20
168.5109392772
 10
261.3965974822
 20
169.3931327234
 10
262.5123256519
 20
170.2145145307
 10
263.7179050296
 20
170.9697351823
 10
265.0055171623
 20
171.6539219986
 10
266.3668127432
 20
172.2626195322
 10
267.7929609715
 20
172.7918789754
 10
269.2747147455
 20
173.2382879625
 10
270.8024632818
 20
173.5989407669
 10
272.3662987053
 20
173.8714979063
 10
273.956078913
 20
174.0541861425
 10
275.5614936984
 20
174.1458282838
 10
277.1721313409
 20
174.1458282838
 10
278.7775461263
 20
174.0541861425
 10
280.367326334
 20
173.8714979063
 10
281.9311617575
 20
173.5989407669
 10
283.4589102938
 20
173.2382879625
 10
284.9406640678
 20
172.7918789754
 10
286.3668122961
 20
172.2626195322
 10
287.728107877
 20
171.6539219986
 10
289.0157200097
 20
170.9697351823
 10
290.2212993874
 20
170.2145145307
 10
291.3370275571
 20
169.3931327234
 10
292.355667211
 20
168.5109392772
 10
293.2706134095
 20
167.5736562381
 10
294.0759336277
 20
166.5873483787
 10
294.7664012834
 20
165.5584082971
 10
295.3375404402
 20
164.4935266147
 10
295.7856481596
 20
163.3996025692
 10
296.1078168526
 20
162.2837291132
 10
296.3019584938
 20
161.1531333099
 10
296.3668120726
 20
160.0151614318
  0
LINE
  5
A3
330
1F
100
AcDbEntity
  8
0
  6
Continuous
 62
     1
370
    25
100
AcDbLine
 10
256.3668129667
 20
91.7308957348
 30
0.0
 11
296.3668120726
 21
91.7308957348
 31
0.0
  0
LWPOLYLINE
  5
A4
330
1F
100
AcDbEntity
  8
0
  6
Continuous
 62
     1
370
    25
100
AcDbPolyline
 90
       41
 70
   128
 43
0.0
 10
256.3668129667
 20
105.8730290304
 10
256.3830328807
 20
106.4424769054
 10
256.5126357301
 20
107.5776771675
 10
256.7709995135
 20
108.7018207679
 10
257.1564497127
 20
109.807621039
 10
257.6664885207
 20
110.8879030715
 10
258.2978041544
 20
111.9356558691
 10
259.0463043823
 20
112.9440994034
 10
259.9071351513
 20
113.9066771637
 10
260.8747131824
 20
114.8171604643
 10
261.9427632242
 20
115.6696335445
 10
263.1043590307
 20
116.4585680733
 10
264.3519671335
 20
117.1788604031
 10
265.6774962022
 20
117.8258241187
 10
267.0723491981
 20
118.3952719937
 10
268.527480185
 20
118.8835010896
 10
270.0334525368
 20
119.2873598109
 10
271.5804990082
 20
119.6042181025
 10
273.1585869267
 20
119.8320270548
 10
274.7574811735
 20
119.9693040023
 10
276.3668125197
 20
120.0151623259
 10
277.9761438658
 20
119.9693040023
 10
279.5750381126
 20
119.8320270548
 10
281.1531260311
 20
119.6042181025
 10
282.7001725025
 20
119.2873598109
 10
284.2061448544
 20
118.8835010896
 10
285.6612758412
 20
118.3952719937
 10
287.0561288371
 20
117.8258241187
 10
288.3816579058
 20
117.1788604031
 10
289.6292660087
 20
116.4585680733
 10
290.7908618151
 20
115.6696335445
 10
291.8589118569
 20
114.8171604643
 10
292.8264898881
 20
113.9066771637
 10
293.687320657
 20
112.9440994034
 10
294.4358208849
 20
111.9356558691
 10
295.0671365186
 20
110.8879030715
 10
295.5771753266
 20
109.807621039
 10
295.9626255258
 20
108.7018207679
 10
296.2209893092
 20
107.5776771675
 10
296.3505921587
 20
106.4424769054
 10
296.3668120726
 20
105.8730290304
  0
LINE
  5
A5
330
1F
100
AcDbEntity
  8
0
  6
Continuous
 62
     7
370
    25
100
AcDbLine
 10
186.5643054551
 20
264.9831970487
 30
0.0
 11
132.422171191
 21
264.9831970487
 31
0.0
  0
LINE
  5
A6
330
1F
100
AcDbEntity
  8
0
  6
Continuous
 62
     7
370
    25
100
AcDbLine
 10
132.422171191
 20
224.9831979428
 30
0.0
 11
186.5643054551
 21
224.9831979428
 31
0.0
  0
LINE
  5
A7
330
1F
100
AcDbEntity
  8
0
  6
Continuous
 62
     7
370
    25
100
AcDbLine
 10
132.422171191
 20
264.9831970487
 30
0.0
 11
126.5643067962
 21
264.9831970487
 31
0.0
  0
LINE
  5
A8
330
1F
100
AcDbEntity
  8
0
  6
Continuous
 62
     7
370
    25
100
AcDbLine
 10
126.5643067962
 20
224.9831979428
 30
0.0
 11
132.422171191
 21
224.9831979428
 31
0.0
  0
CIRCLE
  5
A9
330
1F
100
AcDbEntity
  8
0
  6
Continuous
 62
     7
370
    25
100
AcDbCircle
 10
126.5643067962
 20
244.9831974957
 30
0.0
 40
16.30000000000001
  0
CIRCLE
  5
AA
330
1F
100
AcDbEntity
  8
0
  6
Continuous
 62
     7
370
    25
100
AcDbCircle
 10
126.5643067962
 20
244.9831974957
 30
0.0
 40
20.0
  0
LWPOLYLINE
  5
AB
330
1F
100
AcDbEntity
  8
0
  6
Continuous
 62
     7
370
    25
100
AcDbPolyline
 90
       41
 70
   128
 43
0.0
 10
186.5643054551
 20
264.9831970487
 10
187.7022773331
 20
264.9183434699
 10
188.8328656858
 20
264.7242018286
 10
189.9487428671
 20
264.4020331357
 10
191.0426669127
 20
263.9539254163
 10
192.1075485951
 20
263.3827862595
 10
193.1364812261
 20
262.6923186038
 10
194.1227965361
 20
261.8869983856
 10
195.0600870257
 20
260.9720521871
 10
195.9422804719
 20
259.9534125332
 10
196.7636473781
 20
258.8376843635
 10
197.5188754803
 20
257.6321049858
 10
198.2030548459
 20
256.3444928531
 10
198.8117523795
 20
254.9831972722
 10
199.341026724
 20
253.5570490439
 10
199.787435711
 20
252.0752952699
 10
200.1480810648
 20
250.5475467336
 10
200.4206382042
 20
248.9837113101
 10
200.603333891
 20
247.3939311024
 10
200.6949760324
 20
245.788516317
 10
200.6949760324
 20
244.1778786745
 10
200.603333891
 20
242.5724638891
 10
200.4206382042
 20
240.9826836814
 10
200.1480810648
 20
239.4188482579
 10
199.787435711
 20
237.8910997216
 10
199.341026724
 20
236.4093459476
 10
198.8117523795
 20
234.9831977193
 10
198.2030548459
 20
233.6219021384
 10
197.5188754803
 20
232.3342900057
 10
196.7636473781
 20
231.128710628
 10
195.9422804719
 20
230.0129824583
 10
195.0600870257
 20
228.9943428044
 10
194.1227965361
 20
228.0793966059
 10
193.1364812261
 20
227.2740763877
 10
192.1075485951
 20
226.583608732
 10
191.0426669127
 20
226.0124695752
 10
189.9487428671
 20
225.5643618558
 10
188.8328656858
 20
225.2421931628
 10
187.7022773331
 20
225.0480515216
 10
186.5643054551
 20
224.9831979428
 10
186.5643054551
 20
224.9831979428
  0
LWPOLYLINE
  5
AC
330
1F
100
AcDbEntity
  8
0
  6
Continuous
 62
     1
370
    25
100
AcDbPolyline
 90
       21
 70
   128
 43
0.0
 10
146.5643063491
 20
244.9831974957
 10
146.5184480256
 20
243.3738661496
 10
146.3811692154
 20
241.7749719028
 10
146.1533621257
 20
240.1968839843
 10
145.8365019715
 20
238.6498375129
 10
145.4326451129
 20
237.143865161
 10
144.944410429
 20
235.6887341742
 10
144.3749644166
 20
234.2938811783
 10
143.7279988384
 20
232.9683521096
 10
143.0077120966
 20
231.7207440067
 10
142.2187738424
 20
230.5591482003
 10
141.366299831
 20
229.4910981585
 10
140.4558202556
 20
228.5235201273
 10
139.4932387701
 20
227.6626893584
 10
138.4847998923
 20
226.9141891305
 10
137.4370415068
 20
226.2828734968
 10
136.3567604056
 20
225.7728346888
 10
135.2509619972
 20
225.3873844896
 10
134.1268174654
 20
225.1290207062
 10
132.991617669
 20
224.9994178567
 10
132.422171191
 20
224.9831979428
  0
LWPOLYLINE
  5
AD
330
1F
100
AcDbEntity
  8
0
  6
Continuous
 62
     1
370
    25
100
AcDbPolyline
 90
       21
 70
   128
 43
0.0
 10
132.422171191
 20
264.9831970487
 10
132.991617669
 20
264.9669771348
 10
134.1268174654
 20
264.8373742853
 10
135.2509619972
 20
264.5790105019
 10
136.3567604056
 20
264.1935603027
 10
137.4370415068
 20
263.6835214947
 10
138.4847998923
 20
263.052205861
 10
139.4932387701
 20
262.3037056331
 10
140.4558202556
 20
261.4428748641
 10
141.366299831
 20
260.475296833
 10
142.2187738424
 20
259.4072467912
 10
143.0077120966
 20
258.2456509848
 10
143.7279988384
 20
256.9980428819
 10
144.3749644166
 20
255.6725138132
 10
144.944410429
 20
254.2776608173
 10
145.4326451129
 20
252.8225298304
 10
145.8365019715
 20
251.3165574786
 10
146.1533621257
 20
249.7695110072
 10
146.3811692154
 20
248.1914230887
 10
146.5184480256
 20
246.5925288419
 10
146.5643063491
 20
244.9831974957
  0
LWPOLYLINE
  5
AE
330
1F
100
AcDbEntity
  8
0
  6
Continuous
 62
     1
370
    25
100
AcDbPolyline
 90
       32
 70
   128
 43
0.0
 10
129.9957643567
 20
260.9179106806
 10
129.3558728719
 20
260.6957921092
 10
128.372280982
 20
260.2438259203
 10
127.4212963834
 20
259.6689903442
 10
126.5105758901
 20
258.9759131227
 10
125.6474520849
 20
258.1701747407
 10
124.8388743332
 20
257.2582627911
 10
124.0913529253
 20
256.24751889
 10
123.4109060677
 20
255.1460809339
 10
122.803012964
 20
253.9628179077
 10
122.2725674814
 20
252.7072567758
 10
121.8238408981
 20
251.3895056475
 10
121.4604453488
 20
250.0201746155
 10
121.1853075145
 20
248.6102886763
 10
121.0006420804
 20
247.1711997208
 10
120.9079363687
 20
245.7144942167
 10
120.9079363687
 20
244.2519007748
 10
121.0006420804
 20
242.7951952707
 10
121.1853075145
 20
241.3561063152
 10
121.4604453488
 20
239.946220376
 10
121.8238408981
 20
238.576889344
 10
122.2725674814
 20
237.2591382157
 10
122.803012964
 20
236.0035770838
 10
123.4109060677
 20
234.8203140576
 10
124.0913529253
 20
233.7188761015
 10
124.8388743332
 20
232.7081322003
 10
125.6474520849
 20
231.7962202508
 10
126.5105758901
 20
230.9904818688
 10
127.4212963834
 20
230.2974046473
 10
128.372280982
 20
229.7225690712
 10
129.3558728719
 20
229.2706028823
 10
129.9957643567
 20
229.0484843109
  0
INSERT
  5
BA
330
1F
100
AcDbEntity
  8
FORMAT
 62
     7
100
AcDbBlockReference
  2
SW_CENTERMARKSYMBOL_0
 10
126.5643067962
 20
244.9831974957
 30
0.0
  0
LINE
  5
BB
330
1F
100
AcDbEntity
  8
0
  6
Continuous
 62
     7
370
    25
100
AcDbLine
 10
186.5643054551
 20
-64.6350094879
 30
0.0
 11
132.422171191
 21
-64.6350094879
 31
0.0
  0
LINE
  5
BC
330
1F
100
AcDbEntity
  8
0
  6
Continuous
 62
     7
370
    25
100
AcDbLine
 10
132.422171191
 20
-104.6350085938
 30
0.0
 11
186.5643054551
 21
-104.6350085938
 31
0.0
  0
LINE
  5
BD
330
1F
100
AcDbEntity
  8
0
  6
Continuous
 62
     7
370
    25
100
AcDbLine
 10
126.5643067962
 20
-104.6350085938
 30
0.0
 11
132.422171191
 21
-104.6350085938
 31
0.0
  0
LINE
  5
BE
330
1F
100
AcDbEntity
  8
0
  6
Continuous
 62
     7
370
    25
100
AcDbLine
 10
132.422171191
 20
-64.6350094879
 30
0.0
 11
126.5643067962
 21
-64.6350094879
 31
0.0
  0
LWPOLYLINE
  5
BF
330
1F
100
AcDbEntity
  8
0
  6
Continuous
 62
     7
370
    25
100
AcDbPolyline
 90
       79
 70
   128
 43
0.0
 10
186.5643054551
 20
-104.6350085938
 10
187.7022773331
 20
-104.570155015
 10
188.8328656858
 20
-104.3760133738
 10
189.9487428671
 20
-104.0538446808
 10
191.0426669127
 20
-103.6057369614
 10
192.1075485951
 20
-103.0345978046
 10
193.1364812261
 20
-102.3441301489
 10
194.1227965361
 20
-101.5388099307
 10
195.0600870257
 20
-100.6238637323
 10
195.9422804719
 20
-99.6052240783
 10
196.7636473781
 20
-98.4894959087
 10
197.5188754803
 20
-97.283916531
 10
198.2030548459
 20
-95.9963043982
 10
198.8117523795
 20
-94.6350088174
 10
199.341026724
 20
-93.208860589
 10
199.787435711
 20
-91.727106815
 10
200.1480810648
 20
-90.1993582787
 10
200.4206382042
 20
-88.6355228553
 10
200.603333891
 20
-87.0457426475
 10
200.6949760324
 20
-85.4403278621
 10
200.6949760324
 20
-83.8296902197
 10
200.603333891
 20
-82.2242754342
 10
200.4206382042
 20
-80.6344952265
 10
200.1480810648
 20
-79.0706598031
 10
199.787435711
 20
-77.5429112667
 10
199.341026724
 20
-76.0611574927
 10
198.8117523795
 20
-74.6350092644
 10
198.2030548459
 20
-73.2737136835
 10
197.5188754803
 20
-71.9861015508
 10
196.7636473781
 20
-70.7805221731
 10
195.9422804719
 20
-69.6647940034
 10
195.0600870257
 20
-68.6461543495
 10
194.1227965361
 20
-67.731208151
 10
193.1364812261
 20
-66.9258879328
 10
192.1075485951
 20
-66.2354202772
 10
191.0426669127
 20
-65.6642811204
 10
189.9487428671
 20
-65.2161734009
 10
188.8328656858
 20
-64.894004708
 10
187.7022773331
 20
-64.6998630667
 10
186.5643054551
 20
-64.6350094879
 10
185.4263373023
 20
-64.6998630667
 10
184.2957489496
 20
-64.894004708
 10
183.1798717683
 20
-65.2161734009
 10
182.0859439975
 20
-65.6642811204
 10
181.0210623151
 20
-66.2354202772
 10
179.9921296841
 20
-66.9258879328
 10
179.0058180994
 20
-67.731208151
 10
178.0685276097
 20
-68.6461543495
 10
177.1863378888
 20
-69.6647940034
 10
176.3649635321
 20
-70.7805221731
 10
175.6097391552
 20
-71.9861015508
 10
174.9255560642
 20
-73.2737136835
 10
174.3168585306
 20
-74.6350092644
 10
173.7875879115
 20
-76.0611574927
 10
173.3411789244
 20
-77.5429112667
 10
172.9805298453
 20
-79.0706598031
 10
172.7079727059
 20
-80.6344952265
 10
172.5252844697
 20
-82.2242754342
 10
172.4336423284
 20
-83.8296902197
 10
172.4336423284
 20
-85.4403278621
 10
172.5252844697
 20
-87.0457426475
 10
172.7079727059
 20
-88.6355228553
 10
172.9805298453
 20
-90.1993582787
 10
173.3411789244
 20
-91.727106815
 10
173.7875879115
 20
-93.208860589
 10
174.3168585306
 20
-94.6350088174
 10
174.9255560642
 20
-95.9963043982
 10
175.6097391552
 20
-97.283916531
 10
176.3649635321
 20
-98.4894959087
 10
177.1863378888
 20
-99.6052240783
 10
178.0685276097
 20
-100.6238637323
 10
179.0058180994
 20
-101.5388099307
 10
179.9921296841
 20
-102.3441301489
 10
181.0210623151
 20
-103.0345978046
 10
182.0859439975
 20
-103.6057369614
 10
183.1798717683
 20
-104.0538446808
 10
184.2957489496
 20
-104.3760133738
 10
185.4263373023
 20
-104.570155015
 10
186.5643054551
 20
-104.6350085938
  0
LWPOLYLINE
  5
C0
330
1F
100
AcDbEntity
  8
0
  6
Continuous
 62
     7
370
    25
100
AcDbPolyline
 90
       71
 70
   128
 43
0.0
 10
186.5643054551
 20
-100.9350092912
 10
185.531137169
 20
-100.8693901653
 10
184.5062874561
 20
-100.6730617786
 10
183.4980078345
 20
-100.3476036543
 10
182.5144157117
 20
-99.8956374655
 10
181.5634310549
 20
-99.3208018894
 10
180.652713061
 20
-98.6277246678
 10
179.7895893758
 20
-97.8219862858
 10
178.9810113913
 20
-96.9100743363
 10
178.2334871894
 20
-95.8993304351
 10
177.5530405646
 20
-94.7978924791
 10
176.9451476937
 20
-93.6146294529
 10
176.4147036081
 20
-92.3590683209
 10
175.9659774905
 20
-91.0413171927
 10
175.6025828725
 20
-89.6719861606
 10
175.3274441069
 20
-88.2621002214
 10
175.1427777415
 20
-86.8230112659
 10
175.0500701672
 20
-85.3663057618
 10
175.0500701672
 20
-83.90371232
 10
175.1427777415
 20
-82.4470068159
 10
175.3274441069
 20
-81.0079178603
 10
175.6025828725
 20
-79.5980319211
 10
175.9659774905
 20
-78.2287008891
 10
176.4147036081
 20
-76.9109497609
 10
176.9451476937
 20
-75.6553886289
 10
177.5530405646
 20
-74.4721256027
 10
178.2334871894
 20
-73.3706876466
 10
178.9810113913
 20
-72.3599437455
 10
179.7895893758
 20
-71.448031796
 10
180.652713061
 20
-70.6422934139
 10
181.5634310549
 20
-69.9492161924
 10
182.5144157117
 20
-69.3743806163
 10
183.4980078345
 20
-68.9224144274
 10
184.5062874561
 20
-68.5969563032
 10
185.531137169
 20
-68.4006279165
 10
186.5643054551
 20
-68.3350087905
 10
187.5974737412
 20
-68.4006279165
 10
188.622323454
 20
-68.5969563032
 10
189.6306030756
 20
-68.9224144274
 10
190.6141989237
 20
-69.3743806163
 10
191.5651835805
 20
-69.9492161924
 10
192.4759052998
 20
-70.6422934139
 10
193.3390252596
 20
-71.448031796
 10
194.1476069695
 20
-72.3599437455
 10
194.8951237207
 20
-73.3706876466
 10
195.5755703455
 20
-74.4721256027
 10
196.1834632164
 20
-75.6553886289
 10
196.713907302
 20
-76.9109497609
 10
197.1626408702
 20
-78.2287008891
 10
197.5260354882
 20
-79.5980319211
 10
197.8011705285
 20
-81.0079178603
 10
197.9858331686
 20
-82.4470068159
 10
198.078540743
 20
-83.90371232
 10
198.078540743
 20
-85.3663057618
 10
197.9858331686
 20
-86.8230112659
 10
197.8011705285
 20
-88.2621002214
 10
197.5260354882
 20
-89.6719861606
 10
197.1626408702
 20
-91.0413171927
 10
196.713907302
 20
-92.3590683209
 10
196.1834632164
 20
-93.6146294529
 10
195.5755703455
 20
-94.7978924791
 10
194.8951237207
 20
-95.8993304351
 10
194.1476069695
 20
-96.9100743363
 10
193.3390252596
 20
-97.8219862858
 10
192.4759052998
 20
-98.6277246678
 10
191.5651835805
 20
-99.3208018894
 10
190.6141989237
 20
-99.8956374655
 10
189.6306030756
 20
-100.3476036543
 10
188.622323454
 20
-100.6730617786
 10
187.5974737412
 20
-100.8693901653
 10
186.5643054551
 20
-100.9350092912
  0
ARC
  5
C1
330
1F
100
AcDbEntity
  8
0
  6
Continuous
 62
     7
370
    25
100
AcDbCircle
 10
126.5643067962
 20
-84.6350090409
 30
0.0
 40
20.0
100
AcDbArc
 50
90.0
 51
270.0
  0
LWPOLYLINE
  5
C2
330
1F
100
AcDbEntity
  8
0
  6
Continuous
 62
     1
370
    25
100
AcDbPolyline
 90
       41
 70
   128
 43
0.0
 10
132.422171191
 20
-64.6350094879
 10
131.8527247129
 20
-64.6512294019
 10
130.7175249165
 20
-64.7808322514
 10
129.5933806176
 20
-65.0391960347
 10
128.4875820928
 20
-65.424646234
 10
127.4073007588
 20
-65.934685042
 10
126.3595428243
 20
-66.5660006756
 10
125.351103379
 20
-67.3145009035
 10
124.388522592
 20
-68.1753316725
 10
123.4780427838
 20
-69.1429097036
 10
122.6255694708
 20
-70.2109597454
 10
121.836630751
 20
-71.3725555519
 10
121.1163430779
 20
-72.6201636547
 10
120.469378431
 20
-73.9456927234
 10
119.8999319529
 20
-75.3405457193
 10
119.4116972691
 20
-76.7956767062
 10
119.0078399448
 20
-78.3016490581
 10
118.6909802562
 20
-79.8486955295
 10
118.4631722352
 20
-81.4267834479
 10
118.3258943564
 20
-83.0256776948
 10
118.2800351015
 20
-84.6350090409
 10
118.3258943564
 20
-86.244340387
 10
118.4631722352
 20
-87.8432346339
 10
118.6909802562
 20
-89.4213225523
 10
119.0078399448
 20
-90.9683690237
 10
119.4116972691
 20
-92.4743413756
 10
119.8999319529
 20
-93.9294723624
 10
120.469378431
 20
-95.3243253583
 10
121.1163430779
 20
-96.649854427
 10
121.836630751
 20
-97.8974625299
 10
122.6255694708
 20
-99.0590583364
 10
123.4780427838
 20
-100.1271083782
 10
124.388522592
 20
-101.0946864093
 10
125.351103379
 20
-101.9555171782
 10
126.3595428243
 20
-102.7040174062
 10
127.4073007588
 20
-103.3353330398
 10
128.4875820928
 20
-103.8453718478
 10
129.5933806176
 20
-104.230822047
 10
130.7175249165
 20
-104.4891858304
 10
131.8527247129
 20
-104.6187886799
 10
132.422171191
 20
-104.6350085938
  0
INSERT
  5
CE
330
1F
100
AcDbEntity
  8
FORMAT
 62
     7
100
AcDbBlockReference
  2
SW_CENTERMARKSYMBOL_1
 10
126.5643067962
 20
-84.6350090409
 30
0.0
  0
LINE
  5
CF
330
1F
100
AcDbEntity
  8
0
  6
Continuous
 62
     7
370
    25
100
AcDbLine
 10
257.4050129812
 20
-87.3999398127
 30
0.0
 11
257.4050129812
 21
-150.041464378
 31
0.0
  0
LINE
  5
D0
330
1F
100
AcDbEntity
  8
0
  6
Continuous
 62
     7
370
    25
100
AcDbLine
 10
297.4050116644
 20
-150.041464378
 30
0.0
 11
297.4050116644
 21
-87.3999398127
 31
0.0
  0
LINE
  5
D1
330
1F
100
AcDbEntity
  8
0
  6
Continuous
 62
     7
370
    25
100
AcDbLine
 10
302.5109100665
 20
2.8492019604
 30
0.0
 11
264.2266396158
 21
-63.461103769
 31
0.0
  0
LINE
  5
D2
330
1F
100
AcDbEntity
  8
0
  6
Continuous
 62
     7
370
    25
100
AcDbLine
 10
298.8676561388
 20
-83.4611038521
 30
0.0
 11
337.1519264248
 21
-17.1508043014
 31
0.0
  0
SPLINE
  5
D3
330
1F
100
AcDbEntity
  8
0
  6
Continuous
 62
     7
370
    25
100
AcDbSpline
210
0.0
220
0.0
230
1.0
 70
     8
 71
     3
 72
    19
 73
    15
 74
     0
 42
0.000000001
 43
0.00000001
 40
0.0
 40
0.0
 40
0.0
 40
0.0
 40
0.0491940896212458
 40
0.1338445490046622
 40
0.2186822203464869
 40
0.303803641693549
 40
0.3893077183443994
 40
0.4752810851646634
 40
0.5617883590586146
 40
0.6488600986847757
 40
0.7364776821102482
 40
0.8245581987543154
 40
0.9129277223754649
 40
1.0
 40
1.0
 40
1.0
 40
1.0
 10
264.2266396157775
 20
-63.46110376896759
 30
0.0
 10
264.0181040846867
 20
-63.82816765921732
 30
0.0
 10
263.4507321844201
 20
-64.82685472151753
 30
0.0
 10
262.5863833632235
 20
-66.49215992553523
 30
0.0
 10
261.6564657074765
 20
-68.4636679141368
 30
0.0
 10
260.8084561142678
 20
-70.47230483077772
 30
0.0
 10
260.0439481429094
 20
-72.51451894767949
 30
0.0
 10
259.366744192931
 20
-74.58774962933708
 30
0.0
 10
258.7806315063619
 20
-76.68880195057874
 30
0.0
 10
258.2903194267099
 20
-78.81386255571087
 30
0.0
 10
257.8999568968208
 20
-80.95812534005337
 30
0.0
 10
257.6176272524157
 20
-83.11490728183539
 30
0.0
 10
257.4386124183686
 20
-85.2659707906635
 30
0.0
 10
257.4161574482922
 20
-86.69213189653728
 30
0.0
 10
257.4050129811546
 20
-87.39993981270233
 30
0.0
  0
SPLINE
  5
D4
330
1F
100
AcDbEntity
  8
0
  6
Continuous
 62
     7
370
    25
100
AcDbSpline
210
0.0
220
0.0
230
1.0
 70
     8
 71
     3
 72
    18
 73
    14
 74
     0
 42
0.000000001
 43
0.00000001
 40
0.0
 40
0.0
 40
0.0
 40
0.0
 40
0.009240556693221
 40
0.1171428274803032
 40
0.2206075635168194
 40
0.3212226258515701
 40
0.4203538024822933
 40
0.5190967060549984
 40
0.6182498723891463
 40
0.7181783035480584
 40
0.8191129855507155
 40
0.9210827370264695
 40
1.0
 40
1.0
 40
1.0
 40
1.0
 10
297.4047963203269
 20
-87.41533690412872
 30
0.0
 10
297.404796561492
 20
-87.41671869258214
 30
0.0
 10
297.4047996187502
 20
-87.43423566821285
 30
0.0
 10
297.406579491869
 20
-87.36948673884801
 30
0.0
 10
297.4251568737621
 20
-87.21189067711113
 30
0.0
 10
297.4695724965574
 20
-86.94672206962733
 30
0.0
 10
297.547979316052
 20
-86.5958772849361
 30
0.0
 10
297.6669474236963
 20
-86.16563010448085
 30
0.0
 10
297.8311980803659
 20
-85.66868997135043
 30
0.0
 10
298.042743114437
 20
-85.11860800960838
 30
0.0
 10
298.3023828537717
 20
-84.53198900396191
 30
0.0
 10
298.579090814994
 20
-83.97143287286356
 30
0.0
 10
298.7818732279141
 20
-83.61698211118302
 30
0.0
 10
298.8703430003604
 20
-83.46234257525019
 30
0.0
  0
LWPOLYLINE
  5
D5
330
1F
100
AcDbEntity
  8
0
  6
Continuous
 62
     7
370
    25
100
AcDbPolyline
 90
       79
 70
   128
 43
0.0
 10
263.2628770151
 20
-141.8773834423
 10
264.4467045285
 20
-141.2469213534
 10
265.7145723639
 20
-140.6734956422
 10
267.0582566998
 20
-140.1608243205
 10
268.4690437577
 20
-139.7122330647
 10
269.9377833907
 20
-139.3306303629
 10
271.4549507406
 20
-139.0184916897
 10
273.01070814
 20
-138.7778420188
 10
274.5949633945
 20
-138.6102404258
 10
276.1974425512
 20
-138.5167745763
 10
277.8077537777
 20
-138.4980512209
 10
279.4154525581
 20
-138.5541912537
 10
281.0101128159
 20
-138.684830472
 10
282.5813934265
 20
-138.889122238
 10
284.1191020966
 20
-139.1657409003
 10
285.6132678039
 20
-139.5128931985
 10
287.0542010536
 20
-139.9283264373
 10
288.4325541359
 20
-140.4093480653
 10
289.7393892846
 20
-140.9528376498
 10
290.9662320197
 20
-141.5552700678
 10
292.1051248187
 20
-142.2127388861
 10
293.1486814464
 20
-142.9209801217
 10
294.0901350287
 20
-143.6753999948
 10
294.9233792116
 20
-144.4711062921
 10
295.6430086617
 20
-145.3029393511
 10
296.2443592377
 20
-146.1655028537
 10
296.7235287341
 20
-147.0532031738
 10
297.0774107964
 20
-147.9602841625
 10
297.3037090798
 20
-148.8808619342
 10
297.4009570058
 20
-149.8089666849
 10
297.3685236888
 20
-150.7385795686
 10
297.2066185459
 20
-151.6636710946
 10
296.9162926141
 20
-152.5782421859
 10
296.4994299893
 20
-153.4763618156
 10
295.9587313625
 20
-154.3522038838
 10
295.297704471
 20
-155.2000892262
 10
294.5206374273
 20
-156.0145192591
 10
293.6325684264
 20
-156.7902117151
 10
292.6392583331
 20
-157.5221362371
 10
291.5471476304
 20
-158.2055453138
 10
290.363320117
 20
-158.8360074026
 10
289.0954522816
 20
-159.4094331138
 10
287.7517679457
 20
-159.9221044355
 10
286.3409808879
 20
-160.3706956913
 10
284.8722412548
 20
-160.7522983931
 10
283.355073905
 20
-161.0644370663
 10
281.7993165055
 20
-161.3050867373
 10
280.215061251
 20
-161.4726883302
 10
278.6125820943
 20
-161.5661541797
 10
277.0022708678
 20
-161.5848775351
 10
275.3945720874
 20
-161.5287375024
 10
273.7999118297
 20
-161.3980982841
 10
272.2286312191
 20
-161.193806518
 10
270.6909225489
 20
-160.9171878557
 10
269.1967568417
 20
-160.5700355576
 10
267.7558235919
 20
-160.1546023187
 10
266.3774705096
 20
-159.6735806908
 10
265.0706353609
 20
-159.1300911062
 10
263.8437926258
 20
-158.5276586882
 10
262.7048998268
 20
-157.87018987
 10
261.6613431991
 20
-157.1619486343
 10
260.7198896169
 20
-156.4075287612
 10
259.886645434
 20
-155.6118224639
 10
259.1670159838
 20
-154.7799894049
 10
258.5656654078
 20
-153.9174259023
 10
258.0864959114
 20
-153.0297255822
 10
257.7326138492
 20
-152.1226445935
 10
257.5063155657
 20
-151.2020668218
 10
257.4090676397
 20
-150.2739620711
 10
257.4415009567
 20
-149.3443491874
 10
257.6034060996
 20
-148.4192576614
 10
257.8937320314
 20
-147.5046865702
 10
258.3105946562
 20
-146.6065669405
 10
258.8512932831
 20
-145.7307248722
 10
259.5123201746
 20
-144.8828395298
 10
260.2893872182
 20
-144.0684094969
 10
261.1774562192
 20
-143.2927170409
 10
262.1707663125
 20
-142.560792519
 10
263.2628770151
 20
-141.8773834423
  0
LWPOLYLINE
  5
D6
330
1F
100
AcDbEntity
  8
0
  6
Continuous
 62
     7
370
    25
100
AcDbPolyline
 90
       71
 70
   128
 43
0.0
 10
265.8791716124
 20
-143.3877381645
 10
264.892402924
 20
-144.0109595897
 10
264.0063782098
 20
-144.6827348572
 10
263.2282319764
 20
-145.3976557687
 10
262.5642281344
 20
-146.1499658903
 10
262.0197139007
 20
-146.9336076938
 10
261.5990728768
 20
-147.7422724539
 10
261.305691957
 20
-148.5694490049
 10
261.1419336699
 20
-149.4084769647
 10
261.1091157629
 20
-150.252601859
 10
261.2075036294
 20
-151.0950266346
 10
261.4363037235
 20
-151.9289686848
 10
261.7936737667
 20
-152.7477136432
 10
262.2767382246
 20
-153.544669178
 10
262.8816060868
 20
-154.313419356
 10
263.6034080753
 20
-155.047774255
 10
264.4363325348
 20
-155.7418210964
 10
265.3736729304
 20
-156.389972194
 10
266.4078826712
 20
-156.9870087692
 10
267.5306349559
 20
-157.5281238616
 10
268.7328896148
 20
-158.0089609171
 10
270.0049674429
 20
-158.4256483357
 10
271.3366260976
 20
-158.77483112
 10
272.7171431571
 20
-159.0536982956
 10
274.1354046951
 20
-159.2600036303
 10
275.5799912205
 20
-159.3920871131
 10
277.0392718496
 20
-159.4488852195
 10
278.5014974896
 20
-159.429939845
 10
279.9548940235
 20
-159.3354041981
 10
281.3877610909
 20
-159.1660389981
 10
282.7885613212
 20
-158.9232081038
 10
284.1460158228
 20
-158.6088667276
 10
285.4491963788
 20
-158.2255454689
 10
286.6876099056
 20
-157.7763312101
 10
287.8512848868
 20
-157.26484003
 10
288.9308530331
 20
-156.6951905916
 10
289.9176217215
 20
-156.0719691663
 10
290.8036464357
 20
-155.4001938988
 10
291.5817926691
 20
-154.6852729873
 10
292.2457965111
 20
-153.9329628657
 10
292.7903107448
 20
-153.1493210622
 10
293.2109517687
 20
-152.3406563022
 10
293.5043326885
 20
-151.5134797511
 10
293.6680909757
 20
-150.6744517913
 10
293.7009088827
 20
-149.830326897
 10
293.6025210161
 20
-148.9879021214
 10
293.3737209221
 20
-148.1539600712
 10
293.0163508788
 20
-147.3352151128
 10
292.533286421
 20
-146.538259578
 10
291.9284185587
 20
-145.7695094
 10
291.2066165702
 20
-145.035154501
 10
290.3736921107
 20
-144.3411076596
 10
289.4363517151
 20
-143.692956562
 10
288.4021419743
 20
-143.0959199869
 10
287.2793896896
 20
-142.5548048945
 10
286.0771350308
 20
-142.0739678389
 10
284.8050572026
 20
-141.6572804204
 10
283.473398548
 20
-141.3080976361
 10
282.0928814885
 20
-141.0292304604
 10
280.6746199505
 20
-140.8229251258
 10
279.230033425
 20
-140.690841643
 10
277.770752796
 20
-140.6340435366
 10
276.3085271559
 20
-140.652988911
 10
274.855130622
 20
-140.7475245579
 10
273.4222635547
 20
-140.9168897579
 10
272.0214633243
 20
-141.1597206522
 10
270.6640088227
 20
-141.4740620284
 10
269.3608282668
 20
-141.8573832871
 10
268.12241474
 20
-142.3065975459
 10
266.9587397587
 20
-142.818088726
 10
265.8791716124
 20
-143.3877381645
  0
LWPOLYLINE
  5
D7
330
1F
100
AcDbEntity
  8
0
  6
Continuous
 62
     7
370
    25
100
AcDbPolyline
 90
       79
 70
   128
 43
0.0
 10
305.689282938
 20
1.0132736815
 10
306.5398089752
 20
0.5221244426
 10
307.4765345371
 20
-0.0187796594
 10
308.4933865264
 20
-0.605940853
 10
309.5837676443
 20
-1.2355496376
 10
310.7406090738
 20
-1.903533457
 10
311.9564086761
 20
-2.6055300835
 10
313.2232863075
 20
-3.3370077732
 10
314.5330154301
 20
-4.093228764
 10
315.877107405
 20
-4.8692736122
 10
317.246840469
 20
-5.6601126743
 10
318.6333407346
 20
-6.4606163755
 10
320.0276078742
 20
-7.2656065369
 10
321.4206033643
 20
-8.0698464906
 10
322.8032959256
 20
-8.8681281506
 10
324.1667128892
 20
-9.6552712486
 10
325.5020090145
 20
-10.426175235
 10
326.8005346486
 20
-11.1758221284
 10
328.0538643731
 20
-11.899384305
 10
329.2538648341
 20
-12.5921419865
 10
330.3927576331
 20
-13.2496108048
 10
331.4631565349
 20
-13.8675267769
 10
332.4581155413
 20
-14.4418740579
 10
333.3711871724
 20
-14.9689550898
 10
334.1964537471
 20
-15.4453174012
 10
334.9285530668
 20
-15.867890104
 10
335.562738672
 20
-16.2339274263
 10
336.0949058547
 20
-16.5410602275
 10
336.5215972563
 20
-16.7872870561
 10
336.8400436971
 20
-16.9710281383
 10
337.0481885427
 20
-17.0910786045
 10
337.1446705814
 20
-17.1466594328
 10
337.1288707816
 20
-17.1374079403
 10
337.0008879248
 20
-17.0634002093
 10
336.7615570456
 20
-16.9251069779
 10
336.4124283576
 20
-16.7234057991
 10
335.955767254
 20
-16.4596357916
 10
335.3945305996
 20
-16.1354957323
 10
334.7323627797
 20
-15.7530904411
 10
333.9735535533
 20
-15.31488819
 10
333.1230301503
 20
-14.8237374303
 10
332.1863045884
 20
-14.2828211609
 10
331.169452599
 20
-13.6956599674
 10
330.079068847
 20
-13.0660527034
 10
328.9222274175
 20
-12.3980810515
 10
327.7064278152
 20
-11.6960722576
 10
326.439552818
 20
-10.9645930472
 10
325.1298236954
 20
-10.2083842238
 10
323.7857343546
 20
-9.4323378549
 10
322.4159960223
 20
-8.6414896667
 10
321.0294983909
 20
-7.8409844448
 10
319.6352286171
 20
-7.0359958041
 10
318.242233127
 20
-6.2317558504
 10
316.8595431998
 20
-5.4334848372
 10
315.4961262363
 20
-4.6463417392
 10
314.1608274769
 20
-3.8754392734
 10
312.8623018428
 20
-3.1257802126
 10
311.6089773866
 20
-2.4022271621
 10
310.4089769256
 20
-1.7094694806
 10
309.2700841266
 20
-1.0520006623
 10
308.1996852248
 20
-0.4340846902
 10
307.20472095
 20
0.1402717169
 10
306.2916493189
 20
0.6673405814
 10
305.4663853784
 20
1.1437044135
 10
304.7342860587
 20
1.5662771163
 10
304.1000978193
 20
1.9323250853
 10
303.5679306366
 20
2.2394578865
 10
303.1412418692
 20
2.4856862358
 10
302.8227927942
 20
2.6694257973
 10
302.614653217
 20
2.7894671374
 10
302.518168544
 20
2.8450464451
 10
302.5339683439
 20
2.8358071199
 10
302.6619485665
 20
2.7617978683
 10
302.9012794457
 20
2.6234924694
 10
303.2504081337
 20
2.4218034581
 10
303.7070718715
 20
2.1580349712
 10
304.2683085259
 20
1.833894912
 10
304.9304763458
 20
1.4514774534
 10
305.689282938
 20
1.0132736815
  0
LWPOLYLINE
  5
D8
330
1F
100
AcDbEntity
  8
0
  6
Continuous
 62
     7
370
    25
100
AcDbPolyline
 90
       71
 70
   128
 43
0.0
 10
308.3055775353
 20
-0.4970810407
 10
307.621416963
 20
-0.1019834059
 10
307.0355639149
 20
0.2363644412
 10
306.5527362038
 20
0.515222661
 10
306.1768199009
 20
0.732368088
 10
305.9108423352
 20
0.8860337804
 10
305.7569470691
 20
0.9750056043
 10
305.7163695322
 20
0.9985420125
 10
305.7894376795
 20
0.9564710091
 10
305.9755621138
 20
0.8491167731
 10
306.273247939
 20
0.6773566994
 10
306.6800960775
 20
0.4425689358
 10
307.1928312582
 20
0.1466496901
 10
307.8073247362
 20
-0.2080363816
 10
308.518629196
 20
-0.6186154833
 10
309.3210166174
 20
-1.0817904129
 10
310.2080273373
 20
-1.593823255
 10
311.172519523
 20
-2.1506065235
 10
312.2067292638
 20
-2.7476430986
 10
313.3023297585
 20
-3.3801260201
 10
314.4504981569
 20
-4.042977075
 10
315.6419905521
 20
-4.7308444629
 10
316.8672126092
 20
-5.4381983235
 10
318.1163006485
 20
-6.1593349622
 10
319.3791970491
 20
-6.8884660096
 10
320.6457355301
 20
-7.619703779
 10
321.9057182005
 20
-8.3471665874
 10
323.1490014993
 20
-9.0649918712
 10
324.3655715986
 20
-9.7674131807
 10
325.5456352832
 20
-10.4487609399
 10
326.6796897557
 20
-11.1035666296
 10
327.7586075893
 20
-11.7265327493
 10
328.7737006062
 20
-12.3126670392
 10
329.7167956107
 20
-12.8572319117
 10
330.5802989259
 20
-13.3558638462
 10
331.357258956
 20
-13.8045334678
 10
332.0414195283
 20
-14.1996189352
 10
332.6272725764
 20
-14.5379667822
 10
333.1101002875
 20
-14.8168371694
 10
333.4860192246
 20
-15.0339689083
 10
333.7519967903
 20
-15.1876467681
 10
333.9058946905
 20
-15.276604904
 10
333.9464695933
 20
-15.3001428329
 10
333.8734040801
 20
-15.2580703088
 10
333.6872743775
 20
-15.1507191141
 10
333.3895885523
 20
-14.9789590405
 10
332.9827404138
 20
-14.7441834443
 10
332.4700052331
 20
-14.4482520312
 10
331.8555170235
 20
-14.0935750855
 10
331.1442125637
 20
-13.6829959838
 10
330.3418225081
 20
-13.2198225748
 10
329.454809154
 20
-12.7077912535
 10
328.4903169683
 20
-12.1510079849
 10
327.4561072275
 20
-11.5539714098
 10
326.3605067329
 20
-10.9214884883
 10
325.2123409686
 20
-10.2586359127
 10
324.0208512076
 20
-9.5707670042
 10
322.7956291505
 20
-8.8634131435
 10
321.5465358428
 20
-8.1422673788
 10
320.2836394422
 20
-7.4131484988
 10
319.0171009612
 20
-6.681898562
 10
317.7571182908
 20
-5.9544357536
 10
316.5138402604
 20
-5.2366074285
 10
315.2972675268
 20
-4.5341876397
 10
314.1172064765
 20
-3.8528383597
 10
312.9831493698
 20
-3.1980463581
 10
311.9042315362
 20
-2.575068071
 10
310.8891358851
 20
-1.9889474692
 10
309.9460408806
 20
-1.4443704293
 10
309.0825375654
 20
-0.9457384948
 10
308.3055775353
 20
-0.4970810407
  0
LWPOLYLINE
  5
D9
330
1F
100
AcDbEntity
  8
0
  6
Continuous
 62
     1
370
    25
100
AcDbPolyline
 90
       11
 70
   128
 43
0.0
 10
291.5471476304
 20
-79.235858877
 10
292.6392583331
 20
-79.9192679537
 10
293.6325684264
 20
-80.6511924756
 10
294.5206374273
 20
-81.4268849316
 10
295.297704471
 20
-82.2413149645
 10
295.9587313625
 20
-83.0892003069
 10
296.4994299893
 20
-83.9650423752
 10
296.9162926141
 20
-84.8631620048
 10
297.2066185459
 20
-85.7777330961
 10
297.3685236888
 20
-86.7028246221
 10
297.4050116644
 20
-87.3999398127
  0
LWPOLYLINE
  5
DA
330
1F
100
AcDbEntity
  8
0
  6
Continuous
 62
     1
370
    25
100
AcDbPolyline
 90
       31
 70
   128
 43
0.0
 10
257.4050129812
 20
-87.3999398127
 10
257.4090676397
 20
-87.1674421196
 10
257.5063155657
 20
-86.2393373689
 10
257.7326138492
 20
-85.3187595972
 10
258.0864959114
 20
-84.4116786085
 10
258.5656654078
 20
-83.5239782884
 10
259.1670159838
 20
-82.6614147858
 10
259.886645434
 20
-81.8295817268
 10
260.7198896169
 20
-81.0338754295
 10
261.6613431991
 20
-80.2794555564
 10
262.7048998268
 20
-79.5712143207
 10
263.8437926258
 20
-78.9137455025
 10
265.0706353609
 20
-78.3113130845
 10
266.3774705096
 20
-77.7678234999
 10
267.7558235919
 20
-77.286801872
 10
269.1967568417
 20
-76.8713686332
 10
270.6909225489
 20
-76.524216335
 10
272.2286312191
 20
-76.2475976727
 10
273.7999118297
 20
-76.0433059067
 10
275.3945720874
 20
-75.9126666883
 10
277.0022708678
 20
-75.8565266556
 10
278.6125820943
 20
-75.875250011
 10
280.215061251
 20
-75.9687158605
 10
281.7993165055
 20
-76.1363174534
 10
283.355073905
 20
-76.3769671244
 10
284.8722412548
 20
-76.6891057976
 10
286.3409808879
 20
-77.0707084994
 10
287.7517679457
 20
-77.5192997552
 10
289.0954522816
 20
-78.0319710769
 10
290.363320117
 20
-78.6053967881
 10
291.5471476304
 20
-79.235858877
  0
LWPOLYLINE
  5
DB
330
1F
100
AcDbEntity
  8
0
  6
Continuous
 62
     1
370
    25
100
AcDbPolyline
 90
       13
 70
   128
 43
0.0
 10
291.5471476304
 20
-79.235858877
 10
292.6526900068
 20
-79.8740688207
 10
293.6862081936
 20
-80.4706894741
 10
294.6410009242
 20
-81.0218478341
 10
295.5108740111
 20
-81.5239743519
 10
296.2901873501
 20
-81.9738072535
 10
296.9738862826
 20
-82.3684319364
 10
297.5575371579
 20
-82.7052954121
 10
298.0373540035
 20
-82.9821973659
 10
298.4102265137
 20
-83.1973580231
 10
298.673735196
 20
-83.3493766971
 10
298.8261704689
 20
-83.4372572605
 10
298.8676561388
 20
-83.4611038521
  0
LWPOLYLINE
  5
DC
330
1F
100
AcDbEntity
  8
0
  6
Continuous
 62
     1
370
    25
100
AcDbPolyline
 90
       29
 70
   128
 43
0.0
 10
264.2266396158
 20
-63.461103769
 10
264.2277510743
 20
-63.4617661168
 10
264.299699202
 20
-63.5034261499
 10
264.4835039853
 20
-63.6096715516
 10
264.7779731602
 20
-63.7797998309
 10
265.1811955172
 20
-64.0127190666
 10
265.6905587031
 20
-64.3069163402
 10
266.3027579767
 20
-64.6604800619
 10
267.013822397
 20
-65.0711198355
 10
267.8191413293
 20
-65.536173972
 10
268.713491857
 20
-66.0526225633
 10
269.6910728617
 20
-66.6171164785
 10
270.7455448646
 20
-67.2259923852
 10
271.8700708566
 20
-67.8753115362
 10
273.0573554817
 20
-68.5608569195
 10
274.2996990375
 20
-69.2781842106
 10
275.5890462075
 20
-70.0226331813
 10
276.9170334765
 20
-70.7893816923
 10
278.275049058
 20
-71.573465847
 10
279.6542849192
 20
-72.369783412
 10
281.0457967086
 20
-73.1731801304
 10
282.4405610493
 20
-73.9784508607
 10
283.8295301983
 20
-74.7803566856
 10
285.2036972424
 20
-75.5737127442
 10
286.554150428
 20
-76.3533678868
 10
287.8721314425
 20
-77.1142626577
 10
289.1490920489
 20
-77.8514680755
 10
290.3767517908
 20
-78.5601976551
 10
291.5471476304
 20
-79.235858877
  0
ENDSEC
  0
SECTION
  2
OBJECTS
  0
DICTIONARY
  5
C
330
0
100
AcDbDictionary
281
     1
  3
ACAD_GROUP
350
D
  3
ACAD_LAYOUT
350
1A
  3
ACAD_MLINESTYLE
350
17
  3
ACAD_PLOTSETTINGS
350
19
  3
ACAD_PLOTSTYLENAME
350
E
  3
ACAD_SCALELIST
350
47
  0
DICTIONARY
  5
D
102
{ACAD_REACTORS
330
C
102
}
330
C
100
AcDbDictionary
281
     1
  0
DICTIONARY
  5
1A
102
{ACAD_REACTORS
330
C
102
}
330
C
100
AcDbDictionary
281
     1
  3
Layout1
350
1E
  3
Layout2
350
26
  3
Model
350
22
  0
DICTIONARY
  5
17
102
{ACAD_REACTORS
330
C
102
}
330
C
100
AcDbDictionary
281
     1
  3
Standard
350
18
  0
DICTIONARY
  5
19
102
{ACAD_REACTORS
330
C
102
}
330
C
100
AcDbDictionary
281
     1
  0
ACDBDICTIONARYWDFLT
  5
E
102
{ACAD_REACTORS
330
C
102
}
330
C
100
AcDbDictionary
281
     1
  3
Normal
350
F
100
AcDbDictionaryWithDefault
340
F
  0
DICTIONARY
  5
47
102
{ACAD_REACTORS
330
C
102
}
330
C
100
AcDbDictionary
281
     1
  3
A0
350
48
  3
A1
350
49
  3
A2
350
4A
  3
A3
350
4B
  3
A4
350
4C
  3
A5
350
4D
  3
A6
350
4E
  3
A7
350
4F
  3
A8
350
50
  3
A9
350
51
  3
B0
350
52
  3
B1
350
53
  3
B2
350
54
  3
B3
350
55
  3
B4
350
56
  3
B5
350
57
  3
B6
350
58
  3
B7
350
59
  3
B8
350
5A
  3
B9
350
5B
  3
C0
350
5C
  3
C1
350
5D
  3
C2
350
5E
  3
C3
350
5F
  3
C4
350
60
  3
C5
350
61
  3
C6
350
62
  3
C7
350
63
  3
C8
350
64
  3
C9
350
65
  3
D0
350
66
  3
D1
350
67
  3
D2
350
68
  0
LAYOUT
  5
1E
102
{ACAD_REACTORS
330
1A
102
}
330
1A
100
AcDbPlotSettings
  1

  2
none_device
  4

  6

 40
0.0
 41
0.0
 42
0.0
 43
0.0
 44
0.0
 45
0.0
 46
0.0
 47
0.0
 48
0.0
 49
0.0
140
0.0
141
0.0
142
1.0
143
1.0
 70
   688
 72
     1
 73
     0
 74
     5
  7

 75
    16
147
1.0
148
0.0
149
0.0
100
AcDbLayout
  1
Layout1
 70
     1
 71
     1
 10
0.0
 20
0.0
 11
420.0
 21
297.0
 12
0.0
 22
0.0
 32
0.0
 14
1.0000000000E+20
 24
1.0000000000E+20
 34
1.0000000000E+20
 15
-1.0000000000E+20
 25
-1.0000000000E+20
 35
-1.0000000000E+20
146
0.0
 13
0.0
 23
0.0
 33
0.0
 16
1.0
 26
0.0
 36
0.0
 17
0.0
 27
1.0
 37
0.0
 76
     0
330
1B
  0
LAYOUT
  5
26
102
{ACAD_REACTORS
330
1A
102
}
330
1A
100
AcDbPlotSettings
  1

  2
none_device
  4

  6

 40
0.0
 41
0.0
 42
0.0
 43
0.0
 44
0.0
 45
0.0
 46
0.0
 47
0.0
 48
0.0
 49
0.0
140
0.0
141
0.0
142
1.0
143
1.0
 70
   688
 72
     1
 73
     0
 74
     5
  7

 75
    16
147
1.0
148
0.0
149
0.0
100
AcDbLayout
  1
Layout2
 70
     1
 71
     2
 10
0.0
 20
0.0
 11
0.0
 21
0.0
 12
0.0
 22
0.0
 32
0.0
 14
0.0
 24
0.0
 34
0.0
 15
0.0
 25
0.0
 35
0.0
146
0.0
 13
0.0
 23
0.0
 33
0.0
 16
1.0
 26
0.0
 36
0.0
 17
0.0
 27
1.0
 37
0.0
 76
     0
330
23
  0
LAYOUT
  5
22
102
{ACAD_REACTORS
330
1A
102
}
330
1A
100
AcDbPlotSettings
  1

  2
none_device
  4
Letter_(8.50_x_11.00_Inches)
  6

 40
6.35
 41
6.35
 42
6.35000508
 43
6.35000508
 44
215.9
 45
279.4
 46
0.0
 47
0.0
 48
0.0
 49
0.0
140
0.0
141
0.0
142
1.0
143
1.0
 70
  1712
 72
     1
 73
     0
 74
     0
  7

 75
     0
147
1.0
148
0.0
149
0.0
100
AcDbLayout
  1
Model
 70
     1
 71
     0
 10
0.0
 20
0.0
 11
279.4
 21
215.9
 12
0.0
 22
0.0
 32
0.0
 14
0.0
 24
0.0
 34
0.0
 15
279.4
 25
215.9
 35
0.0
146
0.0
 13
0.0
 23
0.0
 33
0.0
 16
1.0
 26
0.0
 36
0.0
 17
0.0
 27
1.0
 37
0.0
 76
     0
330
1F
331
29
  0
MLINESTYLE
  5
18
102
{ACAD_REACTORS
330
17
102
}
330
17
100
AcDbMlineStyle
  2
Standard
 70
     0
  3

 62
   256
 51
90.0
 52
90.0
 71
     2
 49
0.5
 62
   256
  6
BYLAYER
 49
-0.5
 62
   256
  6
BYLAYER
  0
ACDBPLACEHOLDER
  5
F
102
{ACAD_REACTORS
330
E
102
}
330
E
  0
SCALE
  5
48
102
{ACAD_REACTORS
330
47
102
}
330
47
100
AcDbScale
 70
     0
300
1:1
140
1.0
141
1.0
290
     1
  0
SCALE
  5
49
102
{ACAD_REACTORS
330
47
102
}
330
47
100
AcDbScale
 70
     0
300
1:2
140
1.0
141
2.0
290
     0
  0
SCALE
  5
4A
102
{ACAD_REACTORS
330
47
102
}
330
47
100
AcDbScale
 70
     0
300
1:4
140
1.0
141
4.0
290
     0
  0
SCALE
  5
4B
102
{ACAD_REACTORS
330
47
102
}
330
47
100
AcDbScale
 70
     0
300
1:5
140
1.0
141
5.0
290
     0
  0
SCALE
  5
4C
102
{ACAD_REACTORS
330
47
102
}
330
47
100
AcDbScale
 70
     0
300
1:8
140
1.0
141
8.0
290
     0
  0
SCALE
  5
4D
102
{ACAD_REACTORS
330
47
102
}
330
47
100
AcDbScale
 70
     0
300
1:10
140
1.0
141
10.0
290
     0
  0
SCALE
  5
4E
102
{ACAD_REACTORS
330
47
102
}
330
47
100
AcDbScale
 70
     0
300
1:16
140
1.0
141
16.0
290
     0
  0
SCALE
  5
4F
102
{ACAD_REACTORS
330
47
102
}
330
47
100
AcDbScale
 70
     0
300
1:20
140
1.0
141
20.0
290
     0
  0
SCALE
  5
50
102
{ACAD_REACTORS
330
47
102
}
330
47
100
AcDbScale
 70
     0
300
1:30
140
1.0
141
30.0
290
     0
  0
SCALE
  5
51
102
{ACAD_REACTORS
330
47
102
}
330
47
100
AcDbScale
 70
     0
300
1:40
140
1.0
141
40.0
290
     0
  0
SCALE
  5
52
102
{ACAD_REACTORS
330
47
102
}
330
47
100
AcDbScale
 70
     0
300
1:50
140
1.0
141
50.0
290
     0
  0
SCALE
  5
53
102
{ACAD_REACTORS
330
47
102
}
330
47
100
AcDbScale
 70
     0
300
1:100
140
1.0
141
100.0
290
     0
  0
SCALE
  5
54
102
{ACAD_REACTORS
330
47
102
}
330
47
100
AcDbScale
 70
     0
300
2:1
140
2.0
141
1.0
290
     0
  0
SCALE
  5
55
102
{ACAD_REACTORS
330
47
102
}
330
47
100
AcDbScale
 70
     0
300
4:1
140
4.0
141
1.0
290
     0
  0
SCALE
  5
56
102
{ACAD_REACTORS
330
47
102
}
330
47
100
AcDbScale
 70
     0
300
8:1
140
8.0
141
1.0
290
     0
  0
SCALE
  5
57
102
{ACAD_REACTORS
330
47
102
}
330
47
100
AcDbScale
 70
     0
300
10:1
140
10.0
141
1.0
290
     0
  0
SCALE
  5
58
102
{ACAD_REACTORS
330
47
102
}
330
47
100
AcDbScale
 70
     0
300
100:1
140
100.0
141
1.0
290
     0
  0
SCALE
  5
59
102
{ACAD_REACTORS
330
47
102
}
330
47
100
AcDbScale
 70
     0
300
1/128" = 1'-0"
140
0.0078125
141
12.0
290
     0
  0
SCALE
  5
5A
102
{ACAD_REACTORS
330
47
102
}
330
47
100
AcDbScale
 70
     0
300
1/64" = 1'-0"
140
0.015625
141
12.0
290
     0
  0
SCALE
  5
5B
102
{ACAD_REACTORS
330
47
102
}
330
47
100
AcDbScale
 70
     0
300
1/32" = 1'-0"
140
0.03125
141
12.0
290
     0
  0
SCALE
  5
5C
102
{ACAD_REACTORS
330
47
102
}
330
47
100
AcDbScale
 70
     0
300
1/16" = 1'-0"
140
0.0625
141
12.0
290
     0
  0
SCALE
  5
5D
102
{ACAD_REACTORS
330
47
102
}
330
47
100
AcDbScale
 70
     0
300
3/32" = 1'-0"
140
0.09375
141
12.0
290
     0
  0
SCALE
  5
5E
102
{ACAD_REACTORS
330
47
102
}
330
47
100
AcDbScale
 70
     0
300
1/8" = 1'-0"
140
0.125
141
12.0
290
     0
  0
SCALE
  5
5F
102
{ACAD_REACTORS
330
47
102
}
330
47
100
AcDbScale
 70
     0
300
3/16" = 1'-0"
140
0.1875
141
12.0
290
     0
  0
SCALE
  5
60
102
{ACAD_REACTORS
330
47
102
}
330
47
100
AcDbScale
 70
     0
300
1/4" = 1'-0"
140
0.25
141
12.0
290
     0
  0
SCALE
  5
61
102
{ACAD_REACTORS
330
47
102
}
330
47
100
AcDbScale
 70
     0
300
3/8" = 1'-0"
140
0.375
141
12.0
290
     0
  0
SCALE
  5
62
102
{ACAD_REACTORS
330
47
102
}
330
47
100
AcDbScale
 70
     0
300
1/2" = 1'-0"
140
0.5
141
12.0
290
     0
  0
SCALE
  5
63
102
{ACAD_REACTORS
330
47
102
}
330
47
100
AcDbScale
 70
     0
300
3/4" = 1'-0"
140
0.75
141
12.0
290
     0
  0
SCALE
  5
64
102
{ACAD_REACTORS
330
47
102
}
330
47
100
AcDbScale
 70
     0
300
1" = 1'-0"
140
1.0
141
12.0
290
     0
  0
SCALE
  5
65
102
{ACAD_REACTORS
330
47
102
}
330
47
100
AcDbScale
 70
     0
300
1-1/2" = 1'-0"
140
1.5
141
12.0
290
     0
  0
SCALE
  5
66
102
{ACAD_REACTORS
330
47
102
}
330
47
100
AcDbScale
 70
     0
300
3" = 1'-0"
140
3.0
141
12.0
290
     0
  0
SCALE
  5
67
102
{ACAD_REACTORS
330
47
102
}
330
47
100
AcDbScale
 70
     0
300
6" = 1'-0"
140
6.0
141
12.0
290
     0
  0
SCALE
  5
68
102
{ACAD_REACTORS
330
47
102
}
330
47
100
AcDbScale
 70
     0
300
1'-0" = 1'-0"
140
12.0
141
12.0
290
     0
  0
ENDSEC
  0
EOF
